After Tonight Uke乐谱通过 Justin Nozuka

7 在歌曲中使用的和弦 :

添加乐谱到您的歌本里

为Baritone浏览这些和弦

Transpose chords:
Tablature / ChordsFont size: A- A A+

不明白什么是乐谱和弦?请您浏览这些uke课程:


A chordA l'oreille

B3 chordB3 B2 chordB2 B1 chordB1 Dm chordDm Am chordAm Gm chordGm

A|-3-----2-----1-----0-----0-----1-|
E|-3-----2-----1-----1-----0-----3-|
C|-4-----3-----2-----2-----0-----2-|
G|-5-----4-----3-----2-----0-----0-|


Intro:
B3 chordB3 B3 chordB3 B3 chordB3 B3 chordB3 B2 chordB2 B1 chordB1 B1 chordB1 B1 chordB1 B1 chordB1
-----------------------------------
B2 chordB2 B3 chordB3 B3 chordB3 B3 chordB3 B3 chordB3 B2 chordB2 B1 chordB1 B1 chordB1 B1 chordB1 B1 chordB1
-----------------------------------


Couplet:
Dm chordDm Dm chordDm Dm chordDm Dm chordDm Am chordAm Am chordAm Am chordAm Am chordAm
----------------------------

Dm chordDm Dm chordDm Dm chordDm Dm chordDm Am chordAm Am chordAm Am chordAm Am chordAm
----------------------------

Gm chordGm Gm chordGm Gm chordGm Gm chordGm Am chordAm Am chordAm Am chordAm Am chordAm
----------------------------

B1 chordB1 B1 chordB1 B1 chordB1 B1 chordB1 B1 chordB1 B1 chordB1 B1 chordB1 B1 chordB1
----------------------------

B1 chordB1 B1 chordB1 B1 chordB1 B1 chordB1 B2 chordB2 B3 chordB3 B3 chordB3 B3 chordB3 B3 chordB3
-----------------------------------
B2 chordB2 B1 chordB1 B1 chordB1 B1 chordB1 B1 chordB1 B2 chordB2 B3 chordB3 B3 chordB3 B3 chordB3 B3 chordB3
-----------------------------------
B2 chordB2 B1 chordB1 B1 chordB1 B1 chordB1 B1 chordB1
---------------

Gm chordGm Gm chordGm Gm chordGm Gm chordGm Am chordAm Am chordAm Am chordAm Am chordAm
----------------------------

Dm chordDm Dm chordDm Dm chordDm Dm chordDm Am chordAm Am chordAm Am chordAm Am chordAm
----------------------------

Gm chordGm Gm chordGm Gm chordGm Gm chordGm Am chordAm Am chordAm Am chordAm Am chordAm
----------------------------



 

乐谱评价 (0)
暂时没有评价. :(
需要帮助,你有一个小费分享,或只是想谈谈这首歌? 开始讨论!

您必须登录才能加入讨论
要么 注册

 

关于这首歌

没有这首歌的信息.