Quarantine Uke乐谱通过 Justin Hurwitz

1 在歌曲中使用的和弦 :

添加乐谱到您的歌本里

为Baritone浏览这些和弦

Transpose chords:
Tablature / ChordsFont size: A- A A+

不明白什么是乐谱和弦?请您浏览这些uke课程:


Riff:
G|-4---4--4---4--6-----4---4--4---4-4---4
C|---0------0--------4----------0-----0--
E|-1------1------4-4-----4----1-----1----
A|---------------------------------------

G|--6-----4---4--4----4--4---4--11---11-9
C|------4--------2--2----2-2----7--7----5
E|--4-4-----4----------------------------
A|---------------------------------------

G|----7-6----6--6---6--7---7-6---4--4-|
C|-5--4-2--2----2-2----4-4---2-2------|
E|----------------------------------1-|
A|------------------------------------|

 

乐谱评价 (0)
暂时没有评价. :(
需要帮助,你有一个小费分享,或只是想谈谈这首歌? 开始讨论!

您必须登录才能加入讨论
要么 注册

 

关于这首歌

没有这首歌的信息.