Down Today Uke乐谱通过 Jonathan Coulton

Ukulele乐谱没有和弦.

添加乐谱到您的歌本里
Tablature / ChordsFont size: A- A A+
必须登陆才能访问此页
要么 注册

 

乐谱评价 (1)
您必须登录才能加入讨论
要么 注册

 

SaMemax737 avatar
flag for US(ISO2) (San Francisco)
The Verse tab got pwned by the lyric censor; it's supposed to look like this:

# [Verse]

A -7-----5-----3-----0---------------------------------0-----------------3-----
E -------------------------3-1---0-----------1-----3-----------1-----0-------0-
C ---(0)---(0)---(0)---(0)---0---0-------0h2---(2)-0-------0h2---(2)-0---------
G -0-----0-----0-----0-----0---0---0---0---0----0----0---0---0----0----0---0---

A -7-----5-----3-----0-----------------------------2---0-2---3---------------
E -------------------------3-1---0-----------1-------------0-----------------
C ---(0)---(0)---(0)---(0)---0---0-------0h2---(2)---------------------------
G -0-----0-----0-----0-----0---0---0---0---0----0----0---0---0---0---0---0---
05 Feb 2012
关于这首歌

没有这首歌的信息.