Strings That Tie To You Uke乐谱通过 Jon Brion

11 在歌曲中使用的和弦: E, Amaj7, F#m, G#m, C#m, D, A, Bm7, Am, B, Amaj9

添加乐谱到您的歌本里
Tablature / ChordsFont size: A- A A+

不明白什么是乐谱和弦?请您浏览这些uke课程:

E E        Amaj7 Amaj7       F#m F#m

E E Amaj7 Amaj7 F#m F#m
from the wrinkles on my forehead
E E Amaj7 Amaj7 F#m F#m
to the mud upon my shoe
G#m G#m C#m C#m G#m G#m F#m F#m
everything's a mem or y
D D A A
with strings that tie to you.

E E Amaj7 Amaj7 F#m F#m

E E Amaj7 Amaj7 F#m F#m
in my dream i'm often running
E E Amaj7 Amaj7 F#m F#m
to the place that's out of you
G#m G#m C#m C#m G#m G#m F#m F#m
of every kind of memory
D D A A E E F#m F#m
with strings that tie to you

G#m G#m C#m C#m
though a change has taken place
Bm7 Bm7 Am Am B B
and i no longer do adore her
F#m F#m G#m G#m C#m C#m
still every god forsaken place is always
Bm7 Bm7 Am Am B B
right around the corner

E E Amaj7 Amaj7 F#m F#m
now i know it's either them or me
E E Amaj7 Amaj7 F#m F#m
so i'll bury every clue
G#m G#m C#m C#m G#m G#m F#m F#m
and every kind of memory
D D A A E E
with strings that tie to you
G#m G#m C#m C#m G#m G#m F#m F#m
and every kind of memory
D D A A E E
with strings that tie to you


Elephant Parade:

E E Amaj9 Amaj9 F#m F#m (sorta)
e|----------------------------------------------|
B|-----0---------0----------0---------0---------|
G|-------1---------1----------2---------2-------|
D|---------2---2-----2----------4---------4-----|
A|---2-------0------------0---------0-----------|
E|-0--------------------2---------2-------------|

e|--------9-7----------7-11-12-9-7--------------------|
B|------9-----9------9-------------9------9-----------|
G|-9-11---------9-11-----------------9-11---11-9-9----|
D|----------------------------------------------------|
A|----------------------------------------------------|
E|----------------------------------------------------|

 

乐谱评价 (0)
暂时没有评价. :(
需要帮助,你有一个小费分享,或只是想谈谈这首歌? 开始讨论!

您必须登录才能加入讨论
要么 注册

 

关于这首歌

没有这首歌的信息.