Demons Uke乐谱通过 Joji

Ukulele乐谱没有和弦.

添加乐谱到您的歌本里
Tablature / ChordsFont size: A- A A+

不明白什么是乐谱和弦?请您浏览这些uke课程:

[Intro]

A|---2----5----3----10-------------------------------------------------------
E|---0----3----1----8--------------------------------------------------------
C|---0----4----2----9--------------------------------------------------------
G|---0----4----2----9--------------------------------------------------------



[Verse 1]

A|---2----5----3----10-------------------------------------------------------
E|---0----3----1----8--------------------------------------------------------
C|---0----4----2----9--------------------------------------------------------
G|---0----4----2----9-------------------------------------------------------
x2

You're taking my heart, now
They're taking my heart, now
And I don't know why
And I don't know why

Alright, alright, alright, alright
Alright, alright, alright
The demons told me everything
They whisper in the night



[Chorus]

A|---2----5----3----10-------------------------------------------------------
E|---0----3----1----8--------------------------------------------------------
C|---0----4----2----9--------------------------------------------------------
G|---0----4----2----9--------------------------------------------------------

This is not a threat, I promise
I promise
This is not a threat, I promise
It's a warning, baby, I just want you to know



[Verse 2]

A|---2----5----3----10-------------------------------------------------------
E|---0----3----1----8--------------------------------------------------------
C|---0----4----2----9--------------------------------------------------------
G|---0----4----2----9-------------------------------------------------------- x2

That's when the summer caved in
And I've fallen in a trench, I'm behaving
I'm behaving myself
I'm behaving myself

We don’t gotta die so soon
So I just behave for you, for you, for you
We don’t gotta die so soon
So I just behave for- (Shh, quiet)



[Chorus]

A|---2----5----3----10-------------------------------------------------------
E|---0----3----1----8--------------------------------------------------------
C|---0----4----2----9--------------------------------------------------------
G|---0----4----2----9--------------------------------------------------------

This is not a threat, I promise
I promise
This is not a threat, I promise
It's a warning, baby, I just want you to know



[Outro]

A|---0----x----x----3--------------------------------------------------------
E|---1----3----1----1--------------------------------------------------------
C|---0----0----2----2--------------------------------------------------------
G|---2----2----3----2--------------------------------------------------------

A|---0----x----x----x----5---------------------------------------------------
E|---1----3----1----1----5---------------------------------------------------
C|---0----0----2----2----x---------------------------------------------------
G|---2----2----3----2----x---------------------------------------------------

A|---0----x----x----5-3------------------------------------------------------
E|---1----3----1----1--------------------------------------------------------
C|---0----0----2----2--------------------------------------------------------
G|---2----2----3----2--------------------------------------------------------


Please, just let me go
Let me go, I've seen enough
I've seen enough
I've seen enough

 

乐谱评价 (3)
您必须登录才能加入讨论
要么 注册

 

Hahahagie avatar
flag for ID(ISO2) (Bogor)
Play like this, i think, its better

A|---2----5----3----0-------------------
E|---0----3----1----0--------------------
C|---0----4----2----0--------------------
G|---0----4----2----0--------------------
15 May 2020
Znader avatar
flag for PH(ISO2) (Cebu City)
marcelo you just need to put your fourth finger on the first string and it will always just be there
keep practicing
14 Feb 2018
marcelomoura avatar
flag for BR(ISO2) (Porto Alegre)
what the fuck

how am i even supposed to play those chords
09 Feb 2018
关于这首歌

没有这首歌的信息.