Stand By Me (介绍) Uke乐谱通过 John Lennon

Ukulele乐谱没有和弦.

添加乐谱到您的歌本里
Tablature / ChordsFont size: A- A A+

不明白什么是乐谱和弦?请您浏览这些uke课程:

A|------------------------------------------------
E|-3-3----2-3-3--3-2-0-0---0-0---0----------0-----
C|------3----------------3---------3-1-1--1---3-3-
G|------------------------------------------------

A|------------------|
E|---2-3-3----2-3-3-|
C|-3--------3-------|
G|------------------|

 

乐谱评价 (2)
您必须登录才能加入讨论
要么 注册

 

stiffler125 avatar
flag for GB(ISO2) (brynmawr)
yes i am working on this one thanks for the feedback i will upload the redone version for you especiall mate
02 Sep 2012
talkischeap. avatar
flag for NZ(ISO2) (Auckland)
This doesn't even sound like a song...
27 Nov 2011
关于这首歌

没有这首歌的信息.