Imagine Uke乐谱通过 John Lennon

Ukulele乐谱没有和弦.

添加乐谱到您的歌本里
Tablature / ChordsFont size: A- A A+

不明白什么是乐谱和弦?请您浏览这些uke课程:

Intro:

# C C Cmaj7 Cmaj7 F F
A-------------------------------------
E--0---0---0---0---1---1---1---------- x2
C----0---0---0---0---0---0---0--------
G------------------------------2h3h4--

Verse 1:

# C C Cmaj7 Cmaj7 F F
A--3---3---2---2---0---0---0----------
E----0---0---0---0---1---1---1-------- x3
C-------------------------------------
G--0---0---0---0---2---2---2---2/3/4--

# C C Cmaj7 Cmaj7 F F Am Am Dm Dm F F
A--3---3---2---2---0---0---0---0---0---0---0---0---0---0---0---0---0----
E----0---0---0---0---1---1---1---1---1---1---0---0---1---1---1---1---1--
C--------------------------------------------------------------0---0----
G--0---0---0---0---2---2---2---2---2---2---2---2---2---2---2------------

# G G G7 G7
A--2---2---2---2----2--
E----3---3---3---3--1--
C--2---2---2---2----2--
G-------------------0--

# Verse 2: Same As Verse 1

# Chorus 1:

# F F G G C C E7 E7
A--0---0---2---2---3---3---2---2----
E----1---1---3---3---0---0---0---0-- x3
C--0---0---2---2---0---0---2---2----
G-----------------------------------

# F F G G C C
A--0---0---2---2---3--
E----1---1---3---3-0--
C--0---0---2---2---0--
G------------------0?

# Verse 3: Same As Verse 1

# Chorus 2: Same As Chorus 1

# Link To Me Playing My Arrangement:

# http://www.youtube.com/watch?v=_DUGDCT1mPQ

 

乐谱评价 (1)
您必须登录才能加入讨论
要么 注册

 

arxarts avatar
very complete, excellent tab.
22 Apr 2011
关于这首歌

没有这首歌的信息.