Imagine Uke乐谱通过 John Lennon

Ukulele乐谱没有和弦.

添加乐谱到您的歌本里
Tablature / ChordsFont size: A- A A+

不明白什么是乐谱和弦?请您浏览这些uke课程:

Intro:
A|-3-----------------2-----0-----------------------|
E|-0-----0-----0-----0-----1-----1-----1-----------|
C|-0--0-----0-----0--0--0--0--0-----0-----0--------|
G|-0-----------------0-----2-----------------2-3-4-| (x2)

Verse (x2):
A|-3-----3-----3-----2-----0-----0-----0-----0-----|
E|-0-----0-----0-----0-----1-----1-----1-----1-----|
C|-0--0--0--0--0--0--0--0--0--0--0--0--0--0--0-----|
G|-0-----0-----0-----0-----2-----2-----2-----2-3-4-| (x4)

A|-0-----0-----0-----0-----0-----0-----0-----0-----|
E|-1-----1-----0-----0-----1-----1-----1-----1-----|
C|-0--0--0--0--0--0--0--0--2--2--2--2--0--0--0--0--|
G|-2-----2-----2-----2-----2-----2-----2-----2-----|

A|-2-----2-----2-----3-----2-----------------------|
E|-3-----3-----3-----0--0--1-----------------------|
C|-2--2--2--2--2--0--0-----2-----------------------|
G|-0-----0-----0-----0-----0-----------------------|

Chorus:
A|-0-----0-----2-----2-----3-----3-----2-----2-----|
E|-1-----1-----3-----3-----0-----0-----0-----0-----|
C|-0--0--0--0--2--2--2--2--0--0--0--0--2--2--2--2--|
G|-2-----2-----0-----0-----0-----0-----1-----1-----| (x3)

A|-0-----0-----2-----2-----3-----------------------|
E|-1-----1-----3-----3-----0-----------------------|
C|-0--0--0--0--2--2--2--2--0-----------------------|
G|-2-----2-----0-----0-----0-----------------------|

[Repeat Verse]

[Repeat Chorus]

 

乐谱评价 (2)
您必须登录才能加入讨论
要么 注册

 

Monkeycamera avatar
Best one here IMO.
26 May 2012
 avatar
flag for (ISO2)
Great Tab!
03 Feb 2011
关于这首歌

没有这首歌的信息.