Imagine Intro (介绍) Uke乐谱通过 John Lennon

Ukulele乐谱没有和弦.

添加乐谱到您的歌本里
Tablature / ChordsFont size: A- A A+

不明白什么是乐谱和弦?请您浏览这些uke课程:

-------------0---0---0------------
-0---0---0---1---1---1------------
---0---0---0---0---0---0----------
-0---0---0-----------------2-3-4--

Only intro

 

乐谱评价 (1)
您必须登录才能加入讨论
要么 注册

 

thongar avatar
flag for AU(ISO2) (Adelaide)
I'll approve this after you add another 2 notes in! If you play it, and listen carefully - you're missing an extra G and E. Andddd, there should also be one more note after the 2-3-4. Just add 5, and it will be perfect. :D

----------------0---0---0------------
-0---0---0---0--1---1---1------------
---0---0---0--0---0---0---0----------
-0---0---0---0---------------2-3-4-5

(I've basically copied yours, and added what you're missing.)
01 Nov 2010
关于这首歌

没有这首歌的信息.