Happy Christmas Uke乐谱通过 John Lennon

Ukulele乐谱没有和弦.

添加乐谱到您的歌本里
Tablature / ChordsFont size: A- A A+

不明白什么是乐谱和弦?请您浏览这些uke课程:

A|---0-2---------0-2-0---0-2-3-2-0---2-5-2-0---|
E|-3-----3-----3-------0---------------------3-|
C|---------2-2---------------------2-----------|
G|---------------------------------------------|
So this is Christmas and what have you done
Another year over, a new one just begun



A|---7-7-7-5-3---3-7-5-0-5-7-8-7-5---7-10-7-3--|
E|-3-----------3-------------------3-----------|
C|---------------------------------------------|
G|---------------------------------------------|
And so this is Christmas, I hope you have fun
The near and the dear ones, the old and the young



A|---3-0-0-0-------------0-----------------------|
E|-----------3-1-1-1-1-3---3-3-3-1-0-------------|
C|-0---------------------------------2-2-2-2-0-0-|
G|-----------------------------------------------|
A A merry merry Christmas and a happy New Year
Let's hope it's a good one without any fear

 

乐谱评价 (0)
暂时没有评价. :(
需要帮助,你有一个小费分享,或只是想谈谈这首歌? 开始讨论!

您必须登录才能加入讨论
要么 注册

 

关于这首歌

没有这首歌的信息.