Entraré Uke乐谱通过 Jésed

Ukulele乐谱没有和弦.

添加乐谱到您的歌本里
Tablature / ChordsFont size: A- A A+

不明白什么是乐谱和弦?请您浏览这些uke课程:

Entraré Entraré Entraré a su presencia 
A|----------------------------------------|
E|---3-2-3--3-2-3--3-2-3--2-3--5-7-5------|
C|----------------------------------------|
G|----------------------------------------|

En libertad por su amor el Espíritu me lleva
A|----------------------------------------|
E|---3-2-3--3-2-3--3-2-3--2-3--5-7-5------|
C|----------------------------------------|
G|----------------------------------------|

Al trono de la gracia para entrar cara cara
A|----------------------------------------|
E|---3-7-7-5-3-5-5--3-5-7--5-3-5-5--------|
C|----------------------------------------|
G|----------------------------------------|

Si al Dios vivo adorar libre soy libre soy
A|----------------------------------------|
E|--3-5-7-7--8-8-5--3-2-3--7-3-5----------|
C|----------------------------------------|
G|----------------------------------------|

Para entrar
A|----------------------------------------|
E|--5-3-2--3-2-3--------------------------|
C|----------------------------------------|
G|----------------------------------------|

 

乐谱评价 (0)
暂时没有评价. :(
需要帮助,你有一个小费分享,或只是想谈谈这首歌? 开始讨论!

您必须登录才能加入讨论
要么 注册

 

关于这首歌

没有这首歌的信息.