24 (介绍) Uke乐谱通过 Jem

Ukulele乐谱没有和弦.

添加乐谱到您的歌本里
Tablature / ChordsFont size: A- A A+

不明白什么是乐谱和弦?请您浏览这些uke课程:

A|---2-9-7-9-10-10-10-10----2-9-7-2-2-2s5-5---|
E|-0----------------------0-------------------|
C|--------------------------------------------|
G|--------------------------------------------|
s
A|-0------------------0--------2-----7----|
E|---0------------------0--------2--------|
C|----------------------------------------|
G|-----4-2-4-5-5-5-5------4-2------4------|

 

乐谱评价 (0)
暂时没有评价. :(
需要帮助,你有一个小费分享,或只是想谈谈这首歌? 开始讨论!

您必须登录才能加入讨论
要么 注册

 

关于这首歌

没有这首歌的信息.