Im Yours Uke乐谱通过 Jason Mraz

4 在歌曲中使用的和弦: Bb, F, Eb

添加乐谱到您的歌本里
Tablature / ChordsFont size: A- A A+

不明白什么是乐谱和弦?请您浏览这些uke课程:

A|-1s3-1---1-----------------------1---------1----|
E|-1s3-1---1---1s3---1---1s3-------3---------3----|
C|---------2-------------------2---2---2s3---3----|
G|---------3---------2----------------------------|

Intro X2

A|1-------1---1-----|
E|1---1---3---3-----|
C|2-------2---3-----|
G|3---2-------------|

Repeat for whole song ^
Chords are Bb Bb, F F, F7 F7 and Eb Eb

 

乐谱评价 (2)
您必须登录才能加入讨论
要么 注册

 

kina bram avatar
flag for US(ISO2) (Phoenix)
I like it, its different
06 Apr 2012
sherlock avatar
flag for IE(ISO2) (Dublin)
nice! dont pend this, go for it!! :)
06 Apr 2012
关于这首歌

没有这首歌的信息.