You And I Uke乐谱通过 Ingrid Michaelson

6 在歌曲中使用的和弦: C, F, Am, E7, G, D7

添加乐谱到您的歌本里
Tablature / ChordsFont size: A- A A+

不明白什么是乐谱和弦?请您浏览这些uke课程:

# Verse

C C F F Am Am F F

A|--3-------3--------3----------3-------------|
E|--0-------0--------0----------0-------------|
C|--0-------1--------0----------1-------------|
G|--0-------2--------2----------2-------------|

# Chorus

C C E7 E7 F F C C


A|-3----2-----0-----3-------------------------|
E|-0----0-----1-----0-------------------------|
C|-0----2-----0-----0-------------------------|
G|-0----1-----2-----0-------------------------|


C C E7 E7 F F G G
A|-3----2-----0-----2-------------------------|
E|-0----0-----1-----3-------------------------|
C|-0----2-----0-----2-------------------------|
G|-0----1-----2-----0-------------------------|

C C E7 E7 F F D7 D7

A|-3----2-----0-----3-------------------------|
E|-0----0-----1-----2-------------------------|
C|-0----2-----0-----2-------------------------|
G|-0----1-----2-----2-------------------------|


C C F F G G C C
A|-3----0-----2-----3-------------------------|
E|-0----1-----3-----0-------------------------|
C|-0----0-----2-----0-------------------------|
G|-0----2-----0-----0-------------------------|

 

乐谱评价 (0)
暂时没有评价. :(
需要帮助,你有一个小费分享,或只是想谈谈这首歌? 开始讨论!

您必须登录才能加入讨论
要么 注册

 

关于这首歌

没有这首歌的信息.