Lady In Spain (歌曲主要旋律) Uke乐谱通过 Ingrid Michaelson

Ukulele乐谱没有和弦.

添加乐谱到您的歌本里
Tablature / ChordsFont size: A- A A+

不明白什么是乐谱和弦?请您浏览这些uke课程:

Intro:
A|--1-1---1---1-1---1|
E|--2-2---2---2-2---2|
C|1-----1---1-----1--|
G|-------------------|

Verse:
A|--1-1---1-1---4-4---1-1---1-1---1-1---2-2---2-2|
E|--2-2---2-2---1-1---1-1---2-2---2-2---2-2---2-2|
C|1-----1-----1-----1-----3-----3-----3-----3----|
G|-----------------------------------------------|

I am the lady in Spain
I'll sing a haunting refrain
I am the lady from Mars
And I can unscrew the stars

Chorus:
A|--1-1---1-----1-1---------2-2---2-2---2-2---2-2|
E|--1-1---1-----2-2---1-2---2-2---2-2---1-1---1-1|
C|1-----1---5-3-----3-----3-----3-----1-----1----|
G|-----------------------------------------------|

I can be anything that I see
I can be anything that I
Anything that I see

Little:
A|--1-1---1-1---2-2---4-4|
E|--2-2---1-1---2-2---1-1|
C|1-----1-----3-----1----|
G|-----------------------|

I am in love with a boy
Manufacture to destroy
So I shall unravel my love
Just like an old red woolen glove

I can do anything I want to
I can do anything I want
Anything my heart tells me to do
Tells me to do, tells me to do

I can be anything that I see
I can do anything I want to
I can do anything I want to
And I can be anything that I
Anything that I see

 

乐谱评价 (0)
暂时没有评价. :(
需要帮助,你有一个小费分享,或只是想谈谈这首歌? 开始讨论!

您必须登录才能加入讨论
要么 注册

 

关于这首歌

没有这首歌的信息.