Blue Bird Uke乐谱通过 Ikimonogakari

Ukulele乐谱没有和弦.

添加乐谱到您的歌本里
Tablature / ChordsFont size: A- A A+

不明白什么是乐谱和弦?请您浏览这些uke课程:

A|-------------------------------------------------------------------------|
E|-----2---4---5---4---2-------------2---4---5---5-------5-------------------|
C|--1---------------------------1----------------------------------------------|
G|-----------------------------------------------------4-------4---6-----------|

A|--------------------------------------------------------------------------|
E|-----2---4---5---4---2----------2-----------2-----------0---0---2---2------|
C|--1-------------------------------------------------------------------------|
G|------------------------------------6---4-------6---4----------------------|
H
A|---------------------------------------------------------------------------|
E|----5---4---------------5----5---4---0--0--0---2--0--0--2---2--------------|
C|---------------------------------------------------------------------------|
G|------------4---6---4------------------------------------------------------|

A|---------------------------------------------2---4-------4--4--4---5-------|
E|------2---3---4-------4---3---2---0---2---------------------------------0--|
C|--1-----------------1--------------------------------------------------------|
G|------------------------------------------2---------------------------------|

A|------------------------------------------4-----------------4----------------|
E|--2---0---0--0--0---2---4---5---4-------------5---4---5--------5---4---2--0|
C|---------------------------------------------------------------------------|
G|---------------------------------------------------------------------------|

A|-----------2---4----4--4--4---5--------------------------------------------|
E|---2-------------------------------5---4---2---0---0---2---2---------------|
C|---------------------------------------------------------------------------|
G|-------2-------------------------------------------------------------------|

A|---------------------------------------------------------------------------|
E|---2--2---4---5-----5--4--5---4----4--4---5-----------5---4---2-----2---5--|
C|---------------------------------------------------------------------------|
G|----------------------------------------------4---4------------------------|
~
A|---------------------------------------------------------------------------|
E|-------------2---5---------------------------------------------------------|
C|---------------------------------------------------------------------------|
G|---4---6-------------4---6-----6---9----7----6-----------------------------|

A|---------------------------------------------------------------------------|
E|-----2---4---5---4---2-------------2---4---5---5-------5-------------------|
C|---1------------------------------1-----------------------------------------|
G|---------------------------------------------------4-------4---6-----------|

A|---------------------------------------------------------------------------|
E|-----2---4---5---4---2----------2-----------2-------5---0---0---2---2------|
C|--1------------------------------------------------------------------------|
G|------------------------------------6---4-------6--------------------------|

A|-------------------------------------------------------------------------|
E|-----2---4---5---4---2-------------2---4---5---5-------5-------------------|
C|--1-------------------------------1------------------------------------------|
G|------------------------------------------------------4-------4---6-----------|

A|--------------------------------------------------------------------------|
E|-----2---4---5---4---2----------2-----------2-----------0---0---2---2------|
C|--1-------------------------------------------------------------------------|
G|------------------------------------6---4-------6---4----------------------|

A|---------------------------------------------------------------------------|
E|----2-----------2-------5---0---0---2---2-------------2-----------2--------|
C|---------------------------------------------------------------------------|
G|--------6---4-------6-------------------------------------6---4-------6--4-|

A|---------------------------------------------------------------------------|
E|----2---0---0---2---2------------------------------------------------------|
C|---------------------------------------------------------------------------|
G|---------------------------------------------------------------------------|
H ~
A|---------------------------------------------------------------------------|
E|--5---4---------------5----5---4---0--0--0---2--0--0--2---4----4----5---5--|
C|---------------------------------------------------------------------------|
G|----------4---6---4--------------------------------------------------------|

 

乐谱评价 (1)
您必须登录才能加入讨论
要么 注册

 

probilatz avatar
after the third line I think they just gave up
10 Dec 2019
关于这首歌

没有这首歌的信息.