Sunslammer Uke乐谱通过 Homestuck

Ukulele乐谱没有和弦.

添加乐谱到您的歌本里
Tablature / ChordsFont size: A- A A+

不明白什么是乐谱和弦?请您浏览这些uke课程:

A|-3-3-----6-----6-----------6---6---------6-------------------------------------|
E|-----3------1-----------3----1--------3------1---6-6--4-3--1-1--3--4--6--------|
C|-------------------------------------------------------------------------------|
G|-------------------2-2------------1-1------------------------------------------|

A|-------------------6-6---------------------------------------------------------|
E|-6---6-----6---6--------1--1--3-3--4-4----6-----6---6--------------------------|
C|-------------------------------------------------------------------------------|
G|---5---------5------------------------------------5----------8--7--8-----------|

A|-------------------------------------6----5--6---3-5-6--------------3--6-5-6---6--|
E|-6-4-3----------6---6---6---6---6------------------------1-3-----------------1----|
C|----------------------------------------------------------------------------------|
G|-----------5----------5-------5--------------------------------------3------------|

 

乐谱评价 (0)
暂时没有评价. :(
需要帮助,你有一个小费分享,或只是想谈谈这首歌? 开始讨论!

您必须登录才能加入讨论
要么 注册

 

关于这首歌

没有这首歌的信息.