Heir Of Grief (介绍) Uke乐谱通过 Homestuck

Ukulele乐谱没有和弦.

添加乐谱到您的歌本里
Tablature / ChordsFont size: A- A A+

不明白什么是乐谱和弦?请您浏览这些uke课程:

A|-------10--------------10----------------|
E|-----7----------7--------------------------|
C|--8----------8----8-----------------------|X2
G|--------------------------------------------|



A|-------7------------7---------------------|
E|----5---------5---------------------------|
C|-5---------5---5-------------------------|X2
G|-------------------------------------------|



A|-------3--------------3----------5----------5-|
E|----1---------1---------------3-------3-------|
C|-2---------2----2---------4--------4---4----|
G|------------------------------------------------|

 

乐谱评价 (0)
暂时没有评价. :(
需要帮助,你有一个小费分享,或只是想谈谈这首歌? 开始讨论!

您必须登录才能加入讨论
要么 注册

 

关于这首歌

没有这首歌的信息.