Bl1nd Just1c3: 1nv3st1g4t1on (歌曲主要旋律) Uke乐谱通过 Homestuck

Ukulele乐谱没有和弦.

添加乐谱到您的歌本里
Tablature / ChordsFont size: A- A A+

不明白什么是乐谱和弦?请您浏览这些uke课程:

G:---0-7-5-7-3-7-2-7---7-5-7-7-8-7-5-7---------------
C:-------------------4-------------------------------
E:---------------------------------------------------
A:---------------------------------------------------

G:--7-3-10-3-7-5-3-2---7---7-8-7-5-7-----------------
C:-------------------4---4---------------------------
E:---------------------------------------------------
A:---------------------------------------------------

 

乐谱评价 (0)
暂时没有评价. :(
需要帮助,你有一个小费分享,或只是想谈谈这首歌? 开始讨论!

您必须登录才能加入讨论
要么 注册

 

关于这首歌

没有这首歌的信息.