Hollaback Girl (歌曲主要旋律) Uke乐谱通过 Gwen Stefani

Ukulele乐谱没有和弦.

添加乐谱到您的歌本里
Tablature / ChordsFont size: A- A A+

不明白什么是乐谱和弦?请您浏览这些uke课程:

-1------2---1----------1----------2---1-
-----2-----------2------------2---------
---3----------3-----3------3------------
----------------------------------------

-1------2---1----------1----------2---1-
-----2-----------2------------2---------
---3----------3-----3------3------------
----------------------------------------

 

乐谱评价 (1)
您必须登录才能加入讨论
要么 注册

 

Sharynisme avatar
i dont understand
10 May 2018
关于这首歌

没有这首歌的信息.