Sweet Child O' Mine Uke乐谱通过 Guns N Roses

0 在歌曲中使用的和弦 :

添加乐谱到您的歌本里

为Baritone浏览这些和弦

Transpose chords:
Tablature / ChordsFont size: A- A A+

不明白什么是乐谱和弦?请您浏览这些uke课程:

[----5--------11----10-----]
[-------5--3-----5------5--]
[-2------------------------]
[--------------------------]

[----5--------11----10-----]
[-------5--3-----5------5--]
[-2------------------------]
[--------------------------]

[----5--------11----10-----]
[-------5--3-----5------5--]
[--4-----------------------]
[--------------------------]

[----5--------11----10-----]
[-------5--3-----5------5--]
[--4-----------------------]
[--------------------------]

[----5--------11----10-----]
[--3----5--3-----5------5--]
[--------------------------]
[--------------------------]

[----5--------11----10-----]
[--3----5--3-----5------5--]
[--------------------------]
[--------------------------]

 

乐谱评价 (4)
您必须登录才能加入讨论
要么 注册

 

Bluedude avatar
flag for US(ISO2) (Houston)
Great Job Dude
02 Jul 2009
connorcrews avatar
the 11/10, should be changed to 10/9, other than that it sounds right on to me
01 Jul 2009
madgeniusboy avatar
mostly good, however the 11\5/10\5 bit is out, i'm pretty certain it should be 10 on a, then 9 on g, then 9 on a and 9 on g again for the end bit.
01 Jul 2009
stiffler125 avatar
flag for GB(ISO2) (brynmawr)
niceeee, actually works, thanx
30 Jun 2009
关于这首歌

没有这首歌的信息.