Bad To The Bone (介绍) Uke乐谱通过 George Thorogood

Ukulele乐谱没有和弦.

添加乐谱到您的歌本里
Tablature / ChordsFont size: A- A A+

不明白什么是乐谱和弦?请您浏览这些uke课程:

X - pause
\ - slide down
s - legato slide
~ - vibrato


Intro
A|-------------|------------------|------------------|------------------|
E|-7---12-7-10-|-7----7---12-7-10-|-7----7---12-7-10-|-7----7---12-7-10-|
C|-7-7-12-7-10-|-7--X-7-7-12-7-10-|-7--X-7-7-12-7-10-|-7--X-7-7-12-7-10-|
G|-------------|------------------|------------------|------------------|
|_| |__|_| | |_| |__|_| | |_| |__|_| | |_| |__|_|

A|-----8\---------------|-------------------|-------5-------------------|
E|-7__-----7----12-7-10-|-7-6s=7~---12-7-10-|-7-6s7---7-------7-12-7-10-|
C|-7__-----7--7-12-7-10-|-7-6s=7~-7-12-7-10-|-7-6s7-----7-7\--7-12-7-10-|
G|----------------------|-------------------|---------------------------|
| |___| |_|__|_| |_| |__| |__|_| |_|_| |_|_| |___|_|__|_|

A|-------------------|-----|
E|-7-6s=7~---12-7-10-|-7---|
C|-7-6s=7~-7-12-7-10-|-7---|
G|-------------------|-----|
|_| |__| |__|_| |

 

乐谱评价 (0)
暂时没有评价. :(
需要帮助,你有一个小费分享,或只是想谈谈这首歌? 开始讨论!

您必须登录才能加入讨论
要么 注册

 

关于这首歌

没有这首歌的信息.