Things Are Changin Uke乐谱通过 Gary Clark Jr.

Ukulele乐谱没有和弦.

添加乐谱到您的歌本里
Tablature / ChordsFont size: A- A A+

不明白什么是乐谱和弦?请您浏览这些uke课程:

A|-----2------2-----2---------20-----0-----0-----0-----|
E|---5---0-------5----0------5---5-4---5-4---5-4---5-|
C|-2---2-2-2---2---2-2---2---------------------------|
G|-----11---6-------11-----6-----6-----6-----6-----6---|

A|-----2------2-----2-------2-|-0-----0-----0-----0-----|---0--2-|
E|---5---0-------5---0------|-5---5-4---5-5---5-----5-|---5--4-|
C|-2---2-2-2---2---2-2-2----|-------------------------|--------|
G|-----11---6-------11---6----|---6-----6-----6---4-6---|---6----|
H P H
A|---9-----9-9-----7---7---7-----7---------7-------7-----7-----7---|
E|-5-5---5-5-5---4-7-4---2-----4---5-2---5-------4-----4---2-4---4-|
C|-2---x-2-----x-1---1---------1---2---x-2-----x-1---x-1-----1-----|
G|---6-x---6-x-x---4---------4---4---6-x-----6-x---4-x---4-----4-4-|
H P H P
A|---------7---x-7---7------7---7---x--7-|
E|-5-2---5---------4-4---44---2---4----4-|
C|-2---x-2-----x---1------1---------x----|
G|---6-x-----6---6-----4----4----------4-|
H P H P
A|---------7-----7---7---7-------7-----------7--------------7---7-----7-|
E|-5-2---5-----5---4-----4---2-----5-2---2-2---4--4---4---4---2---------|
C|-2---x-2-----2---1---x---x---x---2---x-------1--------x-1---------1---|
G|---6-x-----6---6---4-x---x-4-x-4---6-x-6-6-6------4---x---------4---4-|
H P H P H P
A|---9---0---9---7-----------7-----9---0---9-------7--------7---7---7-|
E|-5-5-------5-4-4---4---2---------5-------5-----4-4---4------2-----4-|
C|-2---x---2---1-------1---1---2-2---x---2---x-1-1---------1------1---|
G|---6-x-----6-----4-----4---4-----6-x-----6-x-------4---x--4-------4-|
H P H P
A|---9---0---9-------7-x-7-x---x-7-----0-------7---------7---7---7-|
E|---5-------5-----------4---2-----5-2---5-2-4-4---4-------2-----4-|
C|-2---x---2---x-1-1---x---x---x---2-----2---1---------1-------1---|
G|---6-x-----6-x-----4-x---x-4-x-4---6-----6-----4---x---4-------4-|
H P
A|-----------------7---7---------7---9---0---9-------7---7---7---7---|
E|---2---2---2---4-----4--42---4-----5-------5-------------2-------4-|
C|-2---x---2---1-1---x---1---x-----2---x---2---x-1-1---1-------1---1-|
G|---6-x-6---6-----4-x-----4-x---4---6-x-----6-x-----4---4-------4---|
H P
A|---9---0---9-------7-x-7-x---x---7-------0---9----7---7---7-----7-|
E|---5-------5-----------4---2---4---5-2-------5----------2-------4-|
C|-2---x---2---x-1-1---x---x---x-----2---x---2---1----1---------x---|
G|---6-x-----6-x-----4-x---x-4-x---4---6-x-----6----4---4-----4-x-4-|
H P H P H P
A|---9---0---9-------7-----7---7-----7---9---0---9---7--7--------7---7-----7|
E|---5-------5---------------2-------4---5-------5---4--4---4------2-------4|
C|-2---x---2---x-1-1---x-1---------x---2---x---2---x---1------x-1------x-1--|
G|---6-x-----6-x-----4-x---4-----4-x-4---6-x-----6-x-4----4---x--4-----x---4|
P H P H P
A|-----------------7------7---7-7---9-------9---7-----------7---7-7---7--|
E|---2---2---2----------2-------4---5---2---5------5---5------2---4---4--|
C|-2---x---2---1-----x-1----------2---x---2---x---1------x-1--------1----|
G|---6-x-6---6-----4-x------6---4---6-x-6---6-x-4----4---x--4-----4---4--|
H P
A|---9---0---9-------7-------7-----9---0---9-------7---7---7-------|
E|---5-------5---2-4-----2---------5-------5-------------2---------|
C|-2---x---2---x---1---1---1---2-2---x---2---x-1-1---1-------1-x-1-|
G|---6-x-----6-x-6---4---4---4-----6-x-----6-x-----4-----------x---|

A|---9---0---9-------7-------7-|
E|---5-------5---2-4-----2-----|
C|-2---x---2---x---1---1---1---|
G|---6-x-----6-x-6---4---4---4-|

A|-----2------2-----2---------20-----0-----0-----0-----|
E|---5---0-------5----0------5---5-4---5-4---5-4---5-|
C|-2---2-2-2---2---2-2---2---------------------------|
G|-----11---6-------11-----6-----6-----6-----6-----6---|

A|-----2------2-----2---------20-----0-----0-----0-----|
E|---5---0-------5----0------5---5-4---5-5---5-----5-|
C|-2---2-2-2---2---2-2---2---------------------------|
G|-----11---6-------11-----6-----6-----6-----6---4-6---|

A|-----2------2-----2---------20-----0-----0-----0-----|
E|---5---0-------5----0------5---5-4---5-4---5-4---5-|
C|-2---2-2-2---2---2-2---2---------------------------|
G|-----11---6-------11-----6-----6-----6-----6-----6---|

A|-----2------2-----2------2---0--2-2-|
E|---5---0-------5---0-------5--7-4-|
C|-2---2-2-2---2---2-2-2------------|
G|-----11---6-------11---6-----6--6-6-|
H P H P
A|---9-9---9-------7---------7---7-7---7---9---0---9-------7-x-7-x-----x--7-|
E|---5-5---5-------4---4-------2-----4-4---5-------5-----------4---4-2---4--|
C|-2-----2---x-1-1-------x-1-------------2---x---2---x-1-1---x---x-----x----|
G|---6-6-----x-------4---x---4-----4---4---6-x-----6-x-----4-x---x---4-x--4-|
H P H P S P S
A|---9---0---9------7---------7---7---7------9---0---9--------7---------|
E|---5-------5------4---4-------2---4-4------5-------5----------4-------|
C|-2---x---2---x-1-1------x-1-----------1--2---x---2---x-1-1----2-------|
G|---6-x-----6-x------4---x---4-------4------6-x-----6-x------4---6-4-6-|
H P H P H P H P
A|----0---9-----7---------7---7--7---9---9---9------7---------7---7----7-|
E|---5----5---4-4---4-------2--4-----5---5---5---2-44---4-------2--4-----|
C|-2----2---x-1-------x-1----------2---x---2---x---1------x--1-------x---|
G|---6----6-x-----4---x---4------4---6-x-6---6-x-6----4---x---4------x-4-|
H P P
A|---9---0---9-------7-------7-----9---0---7--------7--------7---7-|
E|---5-------5---2-4-----2---------5-------5---2----4---4--2-------|
C|-2---x---2---x---1---1---1---2-2---x---2---x---1-1-----1-----1---|
G|---6-x-----6-x-6---4---4---4-----6-x-----6-x-6------4----4-----4-|
H P H P H P P
A|---9---0---9---7---7------7---7-----7---9---0---9---0---7---------7---7---|
E|---5-------5---4---4---44---2---4-------5-------5-------4---4---2---------|
C|-2---x---2---x---1----------------x---2---x---2---x---1-------1-----1---1-|
G|---6-x-----6-x-4-----4----4-------x-4---6-x-----6-x-------4-----4-----4---|
H P H P P
A|---9---9---9---7---7-------7---7----7-----9---0---9-------7----7---7---|
E|---5---5---5---4---4---4-4---2--4---------5-------5----------2---------|
C|-2---x---2---x---1----------------x---1-2---x---2---x-1-1---1----1---1-|
G|---6-x-6---6-x-4-----4-----4------x-4-----6-x-----6-x-----4--4-----4---|
H P H P
A|---9---0---9---7---7------7---7-----7---9---0-------9--7---7---------7-|
E|---5-------5---4---4---44---2-----------5-----5-----5------4---2-------|
C|-2---x---2---x---1--------------1-x---2---x---2-2-x---1--x---x---x-1---|
G|---6-x-----6-x-4-----4----4-------x-4---6-x---6---x-6--4-x---x-4-x---4-|
H P
A|---9-------9---7---7-----7---7---7---9-----------7---7---7-------x---7-|
E|---5-------5---4-----------2---4-----5-----2-5---4-------4---4-2-----4-|
C|-2---x-2-2---x---1---x-1-----------2---x-2-----x---1---x---1-----x-1---|
G|---6-x-----6-x-4---4-x-----------4---6-x---6---x-4---4-x-------4-x---4-|
H P
A|---9-------9---7---7-----7---7---7---9-----------7---7---7-------x---7-|
E|---5-------5---4-----------2---4-----5-----2-5---4-------4---4-2-----4-|
C|-2---x-2-2---x---1---x-1-----------2---x-2-----x---1---x---1-----x-1---|
G|---6-x-----6-x-4---4-x-----------4---6-x---6---x-4---4-x-------4-x---4-|
S
A|-----9-9-9-9-9-9-9-9-9-9-9-9-9-9-9-9-------5---5-5-5-5-----3---3---3---|
E|---5-5-5-5-5-5-5-5-5-5-5-5-5-5-5-5-5-3-3-3-3-3-3-3-3-3-1-1-1-1-1-1-1-1-|
C|-2---------------------------------------------------------------------|
G|-----6-6-6-6-6-6-6-6-6-6-6-6-6-6-6-6-------0---0-0-0-0---2-2-2-2-2-2-2-|

A|-7---7---7---7---7---7---7---7----7-|
E|-5-5-5-5-5-5-5-5-5-5-5-5-5-5-5-5--5-|
C|------------------------------------|
G|-6-6-6-6-6-6-6-6-6-6-6-6-6-6-6-6--6-|

 

乐谱评价 (0)
暂时没有评价. :(
需要帮助,你有一个小费分享,或只是想谈谈这首歌? 开始讨论!

您必须登录才能加入讨论
要么 注册

 

关于这首歌

没有这首歌的信息.