The Medic Uke乐谱通过 Foxing

Ukulele乐谱没有和弦.

添加乐谱到您的歌本里
Tablature / ChordsFont size: A- A A+

不明白什么是乐谱和弦?请您浏览这些uke课程:

S           S S                        
A|-----7-------------------7-------------------------------------------------|
E|-------4-------------------4-------------------2-2-4-2---------------------|
C|-------------------------------------------------------4-------------------|
G|-4---------6---------4---------6----4--6---9-------------------------------|

A|-----7----------------7-------|------7-------------7-|------7----------------|
E|-------4----------------4-----|--------4-------------|--------4--------------|
C|------------------------------|----------------------|-----------------------|
G|-4---------6------4---------6-|--4---------6---4-----|--4---------6---9------|

A|-----7--------------7-|-----7------------7--|-----7-------------7-|-----7------------------------|
E|-------4--------------|-------4-------------|-------4-------------|-------4---------------------|
C|----------------------|---------------------|---------------------|-----------------------------|
G|-4---------6---4--6---|-4---------6---6---6-|-4---------6--4--6---|-4---------6--14--6--9--------|
S S S
A|-----7-----------7--------------------------------------|
E|--------------------------2-4-5-4------------5----------|
C|--------------------------------------------------------|
G|-4-----6------9----6------------------6--4-------4--6---| S S S
A|-----7-----------------------------------------------7--------|
E|-------4------------------------2-2-4-2----------------4------|
C|----------------------------------------4---------------------|
G|-4---------6------4--6--9------------------------4---------6--|
A|-----7-------| |------7--------------7--|------7-------------------------------------|
E|------4------| |--------4---------------|--------4----------------------------------|
C|-------------| |------------------------|-------------------------------------------|
G|-4--------6--| x2 |--4---------6---4--6----|--4---------6---14--6---9-------------------|
S S S
A|-----7-----------7--------------------------------------| |------7-----|
E|--------------------------2-4-5-4------------5----------| |------------|
C|--------------------------------------------------------| |------------|
G|-4-----6------9----6------------------6--4-------4--6---| x4 |--4-----6---|

 

乐谱评价 (0)
暂时没有评价. :(
需要帮助,你有一个小费分享,或只是想谈谈这首歌? 开始讨论!

您必须登录才能加入讨论
要么 注册

 

关于这首歌

没有这首歌的信息.