Someday - Solo (独奏) Uke乐谱通过 Flipsyde

Ukulele乐谱没有和弦.

添加乐谱到您的歌本里
Tablature / ChordsFont size: A- A A+

不明白什么是乐谱和弦?请您浏览这些uke课程:

A|------------3--------------5--------------3-5-------5-3-2-2-----|
E|----------------------------------------------0-1-0-------------|
C|-5--------------5--------------5--------------------------------|
G|--2-2-1-2-4------2-2-1-2-4------2-2-1-2-4-----------------------|

A|--2-2-3-2---2-3-2-3-5-7---7---7~~-------------------------------|
E|-5----------------------1---1-----5-3h5-------------------------|
C|----------------------------------------------------------------|
G|----------2-----------------------------5-7--9--9--9--9--9~~----|

A|----------------------------------------------------------------|
E|-05-------5-----------------------------------------------------|
C|----------------------------------------------------------------|
G|----5-4-5---5-4-5-4-7--5-7--4-7--5-7--5-9--7--9--5-9--7--9------|

A|----------------------------------------------------------------|
E|--------------------5---------------------5---------------------|
C|----------------------------------------------------------------|
G|-10-10-10-10-9-9-9-9---9--12--10--9--7--10--9-----9--12--10--9--7--10--9--|

A|----------------------------------------------------------------|
E|-5--------------------------------------------------------p5----|
C|----------------------------------------------------------------|
G|---9--12--10--9--7--10--9--7--5--9p7--5p4-9p7-5p4-7---5p4-------|


A|----------------------------------------------------------------|
E|--------p5~~----------------------------------------------------|
C|----------------------------------------------------------------|
G|-7-5p4h5--------------------------------------------------------|


Listen to the song and hear when to change tempo, it will take a lot of time and practice to get this right but I can assure you that it is definetly worth it! :)

This solo starts a little after 2min in the song.

 

乐谱评价 (0)
暂时没有评价. :(
需要帮助,你有一个小费分享,或只是想谈谈这首歌? 开始讨论!

您必须登录才能加入讨论
要么 注册

 

关于这首歌

没有这首歌的信息.