So Payaso Uke乐谱通过 Extremoduro

4 在歌曲中使用的和弦: Em, Bm, C, A

添加乐谱到您的歌本里
Tablature / ChordsFont size: A- A A+

不明白什么是乐谱和弦?请您浏览这些uke课程:

A|---2--2-2-------------3--3-2-------------2-----2-----2-----2-------|
E|---3--3-2------2-3----3--3-2-------2-3--3-3---3-3---3-3---3-3------|
C|---4--4-2--2-4-----4--4--4-2-2-2-2-----0---0-4---4-1---1-1---1-----|
G|-------------------------------------------------------------------|



Em Em Em Em Bm Bm
Puede que me deje llevar,
Em Em Em Em Bm Bm
o puede que levante la voz
Em Em Em Em Bm Bm
y puede que me arranque sin más,
Em Em Em Em Bm Bm C C
a ver que me dice después...

Em Em Em Em Bm Bm
Quiero ser tu perro fiel,
Em Em Em Em Bm Bm
tu esclavo sin rechistar
Em Em Em Em Bm Bm
que luego me desato y verás,
Em Em Em Em Bm Bm C C Em Em
A A ver que me dice después so payaso
C C Em Em
me tiemblan los pies a su lado
C C Em Em
me dice que estoy descolorío y
A A
la empiezo a besar...
C C Em Em
a ver que me dice después so cretino
C C Em Em
y me tiemblan los pies, a su lado
C C Em Em
me dice que estoy desconocío
A A
y empiezo a pensar......a ver que me dice después


A|---2--2-2-------------3--3-2-------------2-----2-----2-----2-------|
E|---3--3-2------2-3----3--3-2-------2-3--3-3---3-3---3-3---3-3------|
C|---4--4-2--2-4-----4--4--4-2-2-2-2-----0---0-4---4-1---1-1---1-----|
G|-------------------------------------------------------------------|

Em Em Em Em Bm Bm
Acercate y ya verás,

Em Em Em Em Bm Bm
que no se como hacerlo peor

Em Em Em Em Bm Bm
despacito pero mu mal
Em Em Em Em Bm Bm
a ver que me dice después.......
Em Em Em Em Bm Bm
hago casas de cartón
Em Em Em Em Bm Bm
ayer bebí hasta jurar
Em Em Em Em Bm Bm
pero hoy no me levanta ni Dios

Em Em Em Em Bm Bm C C Em Em
y a ver que me dice después so payaso
C C Em Em
me tiemblan los pies a su lado
C C Em Em
me dice que estoy descolorío
A A
la empiezo a besar......
C C Em Em
a ver que me dice después so cretino
C C Em Em
y me tiemblan los pies a su lado
C C Em Em
me dice que estoy desconocío
A A
me empiezo a pensar..... a ver que me dice después.

Em Em Em Em Bm Bm

Em Em Em Em Bm Bm C C Em Em
y a ver que me dice después so payaso
C C Em Em
me tiemblan los pies a su lado
C C Em Em
me dice que estoy descolorío
A A
la empiezo a besar......
C C Em Em
a ver que me dice después so cretino
C C Em Em
y me tiemblan los pies a su lado
C C Em Em
me dice que estoy desconocío
A A Em Em
me empiezo a pensar..... a ver que me dice después.

 

乐谱评价 (0)
暂时没有评价. :(
需要帮助,你有一个小费分享,或只是想谈谈这首歌? 开始讨论!

您必须登录才能加入讨论
要么 注册

 

关于这首歌

没有这首歌的信息.