Puta Uke乐谱通过 Extremoduro

4 在歌曲中使用的和弦: Am,F,G,E

添加乐谱到您的歌本里
Tablature / ChordsFont size: A- A A+

不明白什么是乐谱和弦?请您浏览这些uke课程:

Am Am
Y casi que a la fuerza, recorro las horas
F F G G
no me encuentra al día si no encuentro su boca
Am Am
diciendo venga venga que me vuelvo loca
F F G G
y ando entre su pelo y hay un agujero
F F G G Am Am
me subo a las estrellas y me tiro de cabeza

F F G G
Subí al árbol más alto que tiene la Alameda
Am Am G G
y vi miles de ojos dentro de mis tinieblas
F F G G
nosotras no la vemos las hormigas comentan
Am Am G G
y el caracol “mi vista solo alcanza la hierba”

F F G G
que nada me interesa del alrededor
F F G G
me subo a lo más alto de la locura
F F Am Am
encuentro a mi princesa hablando con la luna
G G E E
hechándose carreras haber quien es más.... ¡puta!

7-5-3-7--0---------------7-5-3-7--0--8-7-5-3-5-7-7--0
------------------5-8-7------------------------------
------------4-5-7------------------------------------
-----------------------------------------------------

--------------7-5-3-7--0--8-7-5-3-5
-------5-8-7-----------------------
-4-5-7-----------------------------
-----------------------------------

Am Am
que no me da la gana pasar media vida
F F G G
buscando esa frase que tal vez no exista
Am Am F F
no me mira y que cojones puedo decir
G G Am Am
mi perro ya no quiere la comida
F F G G
mi cabeza pasa el día buscándote yeye

F F G G Am Am G G F F G G
Llego a tus rincones llenos de flores
Am Am
por mis esquinas llenas de colores
F F G G Am Am G G F F
se ha desvocao la primavera, la noche entera
Am Am G G E E Am Am
yeyeye yeyeye

Am Am
Bebo de una fuente, caliente caliente
F F G G
y vuelvo a ver al hada que nunca me abandona
Am Am
cuando no estoy contigo no me explico las horas
F F G G
y hago que den gritos, hago que corran

Am Am
Que no me da la gana pasar media vida
F F G G
buscando esa droga que tal vez no exista
Am Am
no me digas hoy que no me mira
F F G G
si no me viene a ver una sonrisa
Am Am
y se me salen dando pedales
F F G G
sin mi permiso una lagrimilla
Am Am
no me digas hoy que no me mira
F F G G
si no me viene a ver una sonrisa
Am Am
y se me salen dando pedales
F F G G
sin mi permiso una lagrimilla

F F G G Am Am G G F F G G
Llego a tus rincones llenos de flores
Am Am
por mis esquinas llenas de colores
F F G G Am Am G G F F
se ha desvocao la primavera, la noche entera
Am Am G G E E Am Am
yeyeye yeyeye

F F G G
que nada me interesa del alrededor
F F G G
me subo a lo más alto de la locura
F F Am Am
encuentro a mi princesa hablando con la luna
G G E E
hechándose carreras haber quien es más.... ¡puta!

7-5-3-7--0---------------7-5-3-7--0--8-7-5-3-5-7-7--0
------------------5-8-7------------------------------
------------4-5-7------------------------------------
-----------------------------------------------------

--------------7-5-3-7--0--8-7-5-3-5
-------5-8-7-----------------------
-4-5-7-----------------------------
-----------------------------------

 

乐谱评价 (0)
暂时没有评价. :(
需要帮助,你有一个小费分享,或只是想谈谈这首歌? 开始讨论!

您必须登录才能加入讨论
要么 注册

 

关于这首歌

没有这首歌的信息.