So Close (介绍) Uke乐谱通过 Evanescence

Ukulele乐谱没有和弦.

添加乐谱到您的歌本里
Tablature / ChordsFont size: A- A A+

不明白什么是乐谱和弦?请您浏览这些uke课程:

A||----2-----2-----|--5-----5-----5-|
E||0---------------|----------------|
C||--------------2-|------6-----6---|
g||--0---0-0---0---|0---0-----0-----|

A|--5---5---------|--5---5---------||
E|----5---7---7---|----5---7---7---||
C|----------------|6---------------||
g|0-------------0-|--------------0-||

 

乐谱评价 (1)
您必须登录才能加入讨论
要么 注册

 

morningstar avatar
flag for GB(ISO2) (Northampton)
needs to be played quickly
09 Sep 2010
关于这首歌

没有这首歌的信息.