Eternal Uke乐谱通过 Evanescence

Ukulele乐谱没有和弦.

添加乐谱到您的歌本里
Tablature / ChordsFont size: A- A A+

不明白什么是乐谱和弦?请您浏览这些uke课程:

# I transposed it up a bit just to make it a little easier to 
# play, less fingers jumping around strings and stuff like that.

# Enjoy.

A||9-----|9-7-5-|4-----|5-4-2-|0-----|0-2-4-|2-0---|--0---|
E||------|------|------|------|------|------|----4-|4---4-|
C||------|------|------|------|------|------|------|------|
g||------|------|------|------|------|------|------|------|

A||------|9-7-5-|4-----|5-4-2-|0-----|0-2-4-|2-0---|--0---|
E||2-----|------|------|------|------|------|----4-|4---4-|
C||------|------|------|------|------|------|------|------|
g||------|------|------|------|------|------|------|------|

A||------|------|----0-|2-----|------|----0-|2-----|------|
E||2-----|5-4-2-|2-4---|------|5-4-2-|2-4---|--5-4-|5-4-2-|
C||------|------|------|------|------|------|------|------|
g||------|------|------|------|------|------|------|------|

A||4-2-0-|0-2-4-|5-4-0-|2-4-2-|4-2-0-|0-2-4-|2-----|------|
E||------|------|------|------|------|------|------|5-4-2-|
C||------|------|------|------|------|------|------|------|
g||------|------|------|------|------|------|------|------|

 

乐谱评价 (0)
暂时没有评价. :(
需要帮助,你有一个小费分享,或只是想谈谈这首歌? 开始讨论!

您必须登录才能加入讨论
要么 注册

 

关于这首歌

没有这首歌的信息.