'til I Collapse (歌曲主要旋律) Uke乐谱通过 Eminem

Ukulele乐谱没有和弦.

添加乐谱到您的歌本里
Tablature / ChordsFont size: A- A A+

不明白什么是乐谱和弦?请您浏览这些uke课程:

A------------------------------------------------
E----4-4-4-4-4-2-4-5-4-------4-4-4-4-4-2-4-0-----
C--1-----------------------1---------------------
G------------------------------------------------

A------------------------------------------------2-------
E----4-4-4-4-4-2-4-5-4-------4-4-4-4-4-2-4-0-------------
C--1-----------------------1-------------------3---1-----
G--------------------------------------------------------

 

乐谱评价 (1)
您必须登录才能加入讨论
要么 注册

 

theduckler avatar
flag for US(ISO2) (Cleburne)
Although it might not be the actual song I've found that it sounds better if the last 3 notes on the C string are 3, 0, 1. Love the tab thought :)
16 Nov 2017
关于这首歌

没有这首歌的信息.