Lose Yourself Uke乐谱通过 Eminem

Ukulele乐谱没有和弦.

添加乐谱到您的歌本里
Tablature / ChordsFont size: A- A A+

不明白什么是乐谱和弦?请您浏览这些uke课程:

Intro

A-2--------2--0--------0--2------------5-3-2-0--|
E----3--0--------2-----------3--0---------------|
C-------------------2---------------------------| x2
g-----------------------------------------------|

A--------------------|
E-5--3\2--3--2-------|
C---------------2--4-|
g--------------------|


Verse

A-------------------------------------|
E-2-2-2-2-2-2-2-2--3-3-3-3-3-3-3--3p2-|
C-4-4-4-4-4-4-4-4--4-4-4-4-4-4-4------|
g-------------------------------------|

A-----------|
E-5-3-2-0-2-|
C-----------|
g-----------|


Chorus Chords

A-2----------------3------------------|
E-0----------------0------------------|
C-4----------------4------------------|
g-------------------------------------|

 

乐谱评价 (3)
您必须登录才能加入讨论
要么 注册

 

ThrashUke avatar
flag for US(ISO2) (Madison)
The main riff is played through the chorus. It's a second uke that would be playing the chorus chords over the top of that riff.
04 Dec 2013
annanduke avatar
flag for US(ISO2) (wilmington)
The Intro and verse sound correct but I don't understand the chorus. Nice tab though
28 Nov 2013
Jrawly avatar
flag for US(ISO2) (Clemson)
It's all good, but is the verse supposed to be on top string (A) instead of second string (E) for the 2's and 3's? And if so it also goes up to 5 or 6 frets.
22 Nov 2013
关于这首歌

没有这首歌的信息.