La Vie En Rose (独奏) Uke乐谱通过 Edith Piaf

Ukulele乐谱没有和弦.

添加乐谱到您的歌本里
Tablature / ChordsFont size: A- A A+

不明白什么是乐谱和弦?请您浏览这些uke课程:

E|---------|3-3--2-0-----3-|-2--0--------2-|-0----------2-|-0---2----|
A|-----0---|--4------3-0---|-0------0------|-0--3-0---0---|-----1----|
C|---0-----|--4------------|-0--------0----|-0------0-----|-----2----|
G|-------0-|---------0-----|-0----0--------|----0---------|-----0----|


E|-5--3-2-0---3-|-2--0---------2-|-0------------2-|-0-0----------|
A|-5--------1---|-1----3-1-------|-------1----1---|-0-----0------|
C|-5------------|-2---------2----|----------2-----|-0-------0----|
G|--------------|-0--------------|----0-----------|-0---0--------|


E|-3----2-0-----3-|-2----0-------2-|-0--------------|-3-3----3--------|
A|------------0---|-0--------0-----|-0------0---0---|-1----------1----|
C|----------------|-0----------0---|-0--------0-----|-0---------------|
G|----------0-----|-0------0-------|-0----0-------0-|-2----2---2------|


E|-5-5--3-5-5--3-|-5-5-3-----|-5-5---3-5-5--3-|-7-5----|
A|-1------1------|-1-----0---|-3-------3------|-5------|
C|-0------0------|-0---------|-3-------3------|-5------|
G|-2------2------|-2-----0---|-3-------0------|-5------|


E|-3---2--0-----3-|-2----0-------2-|-0------0---2-|-3--------------|
A|-0----------0---|-0--------0-----|-0------------|-0-------0-----o|
C|-0--------------|-0----------0---|-0------------|-0-----0-------o|
G|-0--------0-----|-0------0-------|-0----0-------|-0---------0----|

E|-2-2----2---2-5--|-3---------------|-2--2-0----2--|-3------7-|
A|-1---------------|-0------0---0----|-1------------|-0--------|
C|-2---------------|-0----0---0------|-2------------|-0--------|
G|-0----0---0------|-0------------0--|-0------0-----|-0--------|

 

乐谱评价 (0)
暂时没有评价. :(
需要帮助,你有一个小费分享,或只是想谈谈这首歌? 开始讨论!

您必须登录才能加入讨论
要么 注册

 

关于这首歌

没有这首歌的信息.