La Vie En Rose (how I Met Your Mother) Uke乐谱通过 Edith Piaf

Ukulele乐谱没有和弦.

添加乐谱到您的歌本里
Tablature / ChordsFont size: A- A A+

不明白什么是乐谱和弦?请您浏览这些uke课程:

A|-3-2-0---3-2-0----2-0-------2-0---0-3-2--|
E|-0----3-0--0--3-0---0-3-0-----1--1----1--|
C|-0---------0-----0--0----0-0--2-2-----2--|
G|-0---------0--------0---------0-------0--|

A|-5-3-2-0-3-2-0----2-0-------2-0------0---|
E|-3------1--1--3-1---1-3-1-----0--0-------|
C|-5---------2-----2--2----1-2--0-0--------|
G|-----------0--------0---------0----0---0-|

A|-3-2-0---3-2-0----2-0-------3--3---------|
E|-0----3-0--0--3-0---0-3-0------1---------|
C|-0---------0-----0--0----0-0---0---------|
G|-0---------0--------0----------2---------|

A|-5-5-3-5-5-3-5-5-3--5-5-3-5-5-3-5--5--7--|
E|-5-5---4-4---0----3-2-2---2-2---5-----7--|
C|-5-5---5-5---0------2-2---2-2---5-----7--|
G|-------------0------2-2---2-2---5-5-5-7-7|

A|-3-2-0---3-2-0----2-0---0-2-3--5-5-5--7--|
E|-0----3-0--0--3-0---1-3-1-1-0--4-4-4--3--|
C|-0---------0-----0--2---2-2-0--5-5-5--0--|
G|-0---------0------------0-0-0---------0--|

 

乐谱评价 (0)
暂时没有评价. :(
需要帮助,你有一个小费分享,或只是想谈谈这首歌? 开始讨论!

您必须登录才能加入讨论
要么 注册

 

关于这首歌

没有这首歌的信息.