Brijuni (介绍) Uke乐谱通过 Dubioza Kolektiv

Ukulele乐谱没有和弦.

添加乐谱到您的歌本里
Tablature / ChordsFont size: A- A A+

不明白什么是乐谱和弦?请您浏览这些uke课程:

A-----------------------------------------|
E-----6-----5--4-5--5----5--5--3-2--2-3-3-|
C-----------------------------------------|
G--4-----4--------------------------------|
S
A--------------------------------6--6-7-7-|
E------6-----5--4-5--5----5--3-2----------|
C-----------------------------------------|
G---4-----4-------------------------------|

A-------------------------------------------------------------------------|
E-------------------------------------------------------------------------|
C-4-4-4-4-4-4-4-4-4---------------------3-3-3-3-3-3-3-3-3-4-4-4-4-4-4-4-4-|
G-------------------5-5-5-5-5-5-5-5-5-5-----------------------------------|
H P H P
A----------------------------------------------------------------------|
E----------3---------------5---------------5-----5---------------------|
C-4-----6-----6---------------------------------------------4-4--3--4--|
G---4---------------9----------5--7--5--------4-----4------------------|

 

乐谱评价 (0)
暂时没有评价. :(
需要帮助,你有一个小费分享,或只是想谈谈这首歌? 开始讨论!

您必须登录才能加入讨论
要么 注册

 

关于这首歌

没有这首歌的信息.