Sultans Of Swing Uke乐谱通过 Dire Straits

6 在歌曲中使用的和弦: Dm, C, A#, A, F, A7

添加乐谱到您的歌本里
Tablature / ChordsFont size: A- A A+

不明白什么是乐谱和弦?请您浏览这些uke课程:

Intro: Dm Dm / C C  C C / Dm Dm / C C  C C  

Dm Dm
you get a shiver in the dark
C C A# A# A A
it's raining in the park but meantime
Dm Dm C C A# A# A A
south of the river you stop and you hold everything
F F C C
a band is blowing Dixie double four time
A# A# Dm Dm A# A# C C
you feel alright when you hear that music ring

Dm Dm C C A# A# A A
you step inside but you don't see too many faces
Dm Dm C C A# A# A A
coming in out of the rain to (you) hear the jazz go down
F F C C
too much competition in other places
A# A# Dm Dm
but not too many horns can make that sound
(But not too many horns are blowing that sound)
A# A# C C
way on downsouth
A# A# C C
way on downsouth
Dm Dm Dm Dm C C A# A# C C Dm Dm C C A# A# C C
London town

Dm Dm C C A# A# A A
you check out Guitar George he knows all the chords
Dm Dm C C A# A#
mind he's (his) strictly rhythm he doesn't want to
A A
make it cry or sing
F F C C
and an old guitar is all he can afford
A# A# Dm Dm A# A# C C
when he gets up under the lights to play his thing
Dm Dm C C A# A# A A
(and) harry doesnb't mind if he doesn't make the scene
Dm Dm C C A# A# A A
he('s) got a daytime job he's doing al(l)right
F F C C
he can play honky tone just like anything
(He can play the honky tonk like anything)

A# A# Dm Dm A# A# C C
saving it up for friday night
A# A# C C
with the sultans
Dm Dm Dm Dm C C A# A# C C
with the sultans of swing
Dm Dm C C A# A# C C

Dm Dm C C A# A# A A
and a crowd of young boys they're fooling around in the corner
Dm Dm C C A# A#
drunk and dressed in their best brown baggies and
A A
their platform soles
F F C C
they don't give a damn about ('bout) any trumpet playing band
A# A# Dm Dm A# A# C C
it ain't what they call rock and roll
A# A# C C
and the sultans
Dm Dm Dm Dm C C A# A# C C
and the sultans played creole
(Yeah the Sultans they played Creole)

Dm Dm C C A# A# C C

Dm Dm C C A# A# A A
and then the man he steps right up to the microphone
Dm Dm C C A# A# A A (A7 A7)
and says at last just as the time bell rings
F F C C
thank you goodnight now it's time to go home
A# A# Dm Dm A# A# C C
and he makes it fast with one more thing
A# A# C C
we are the sultans
Dm Dm Dm Dm C C A# A# C C
we are the sultans of swing

TABLATURAS

Clichê 1

-----------------------------5-8-5---------------------------
---------------------6-----6-------6-6-5h6p5-----------------
--5--5--5/7------7-----7-7--------------------7--5h7---------
--5--5--5/7--5/7---7-----------------------------------------
-------------------------------------------------------------
-------------------------------------------------------------


Clichê2


-------------------------------------------------------------
-------------------------------------------------------------
-----4b(6)r4b(6)r4-------------------------------------------
-------------------------------------------------------------
-------------------------------------------------------------
-------------------------------------------------------------


Clichê3



------5-------5---------5------------------------------------
-------------------------------------------------------------
-2/6-----6---------6-----------------------------------------
-------------------------------------------------------------
-------------------------------------------------------------
-------------------------------------------------------------



Clichê 4




-------------------------------------------------------------
---5---5---6---5---6---5---3---------------------------------
---5---5---5---5---5---5---3---------------------------------
---5---5---7---5---7---5---3---------------------------------
-------------------------------------------------------------
-------------------------------------------------------------



Clichê 5


-------------------------------------------------------------
-----------6-------(7)/---3---6--x---3/5---------------------
-------7------7-----------3---3--x---3/5--------------5------
---5/7--7-----------------3---3--x---3/5--------5--7---------
-------------------------------------------5/7---------------
-------------------------------------------------------------


Clichê 6



-------------------------------------------------------------
------10----10--11----10-----8-----6-------------------------
-------------------------------------------------------------
--/11----11--------11-----9-----7----------------------------
-------------------------------------------------------------
-------------------------------------------------------------



Clichê 7




---10p9------------------------------------------------------
----------10-------------------------------------------------
----------------9----7/6----7---5----------------------------
-------------------------------------------------------------
-------------------------------------------------------------
-------------------------------------------------------------



Clichê 8




--10--8------------------------------------------------------
-----------10----3--6-----3/5---3--6-----3/5-----------------
--10--9----10----3--3-----3/5---3--3-----3/5-----------------
-----------------3--3--3--3/5---3--3--3--3/5-----------------
-------------------------------------------------------------
-------------------------------------------------------------


Clichê 9



-------------------------------------------------------------
--6--5--3--6-6p5--5---------10--8\--6--5--3--6-6p5--5--------
--7--5--3--7-7p5--5---7/10--10--9\--5--5--3--7-7p5--5-------5
--7--5--3--7-7p5--5-----------------7--5--3--7-7p5--5----5h7-
------------------------------------------------------5/7----
-------------------------------------------------------------



Clichê 10


----2/9---9----8----9----5-----------------------------------
----1/8---8----7----8----5h6---------------------------------
----2/9---9----8----9----5h7---------------------------------
-------------------------5h7---------------------------------
-------------------------------------------------------------
-------------------------------------------------------------



clichê 11



----------5----------9-------7-------------------------------
--------5---5---8b10---10r8-----8b10r8b10---10r8----6--------
-7b9---------------------------------------------------------
-------------------------------------------------------------
-------------------------------------------------------------
-------------------------------------------------------------



clichê 12



-------------------------------------------------------------
----------8---------6----6----6------------------------------
---7/9-------9\7----7----7----7------------------------------
-------------------------------------------------------------
-------------------------------------------------------------
-------------------------------------------------------------



Clichê 13




--------10--8------------------------------------------------
---------------10-------3--6----3/5--5-----------------------
---7/10------------10---3--3----3/5--5---------5---5----5h7--
------------------------3--3----3/5--5-----5h7---7---7-------
-------------------------------------------------------------
-------------------------------------------------------------



Clichê 14



-------------------------------------------------------------
---8---------------------------------------------------------
---7b9r7b9r7b9r7b9r7~----------------------------------------
-------------------------------------------------------------
-------------------------------------------------------------
-------------------------------------------------------------



clichê 15



--7/9---9----------------------------------------------------
----------10---------------10--------------------------------
-------------9------------------12b14r14---------------------
-------------------12--11------------------------------------
-------------------------------------------------------------
-------------------------------------------------------------


clichê 16



-------------------------------------------------------------
---------------------3--6--3/5--5---3--6--3/5--5-------------
-------7---10-9\8-7--3--3--3/5--5---3--3--3/5--5-------------
--5/7----7-----------3--3--3/5--5---3--3--3/5--5-------------
-------------------------------------------------------------
-------------------------------------------------------------


clichê 17




----------12----------------------13-------------------------
--12b14-------14r12--10--------------------------------------
--------------------------12/14------------------------------
-------------------------------------------------------------
-------------------------------------------------------------
-------------------------------------------------------------



Clichê 18



-12p9--------------------------------------------------------
-------10------------10--------------------------------------
----------9---------------12b14r12b14------------------------
-------------12--11------------------------------------------
-------------------------------------------------------------
-------------------------------------------------------------


clichê 19




-------------------------------------------------------------
--------------6------3--6--3/5--5---3--6--3/5--5-------------
---------7-----------3--3--3/5--5---3--3--3/5--5-------------
----5/7----7----7/---3--3--3/5--5---3--3--3/5--5-------------
-------------------------------------------------------------
-------------------------------------------------------------




SOLO 1


-------------------------------------------------------------
-------------------------------------------------------------
--12b14-----12b14--12b14--12b14-----10h12p10----9h10p9-------
-------------------------------------------------------------
-------------------------------------------------------------
-------------------------------------------------------------



-----------------9-12b13r12---10-----------------------------
-------------10------------------10---------10-13---11h13p11-
----------9-------------------------10-----------------------
------11-------------------------------12--------------------
---12--------------------------------------------------------
-------------------------------------------------------------




-------------------------------------13----------------------
--10----11-x----9/10--------13---------13--------------------
----------------------12b14----12b14------14r12--10--10------
-------------------------------------------------------------
-------------------------------------------------------------
-------------------------------------------------------------




--12/13-12---------------------------------------------------
----------13---10----13-13-13--13b15--13b15r13-11-13b15-13b15
------------12----12-----------------------------------------
-------------------------------------------------------------
-------------------------------------------------------------
-------------------------------------------------------------




-----13p10---10----------------------------------------------
--10------10----13b15r13-10-----------3-6-3/5---5-6/8-6-5h6/8
----------------------------12-10---3------/5--5-------------
----------------------------------3--------/5-5--------------
-------------------------------------------------------------
-------------------------------------------------------------




-------------------------------------------------------------
------3--6--3/5-----------------------8----------------------
----3--------/5----5----7----5---7b9------9r7----5----7----7~
--3----------/5--5-------------------------------------------
-------------------------------------------------------------
-------------------------------------------------------------



Clichê 20




-------5----7----/9----/12------10\--------------------------
-------------------------------------------------------------
--2/6----/7---/9----/12-----/10\-----------------------------
-------------------------------------------------------------
-------------------------------------------------------------
-------------------------------------------------------------



clichê 21




--9--9--9-----5--5--5----------------------------------------
--8--8--8-----6--6--6----------------------------------------
--9--9--9-----5--5--5----------------------------------------
--------------7--7--7----------------------------------------
--------------8--8--8----------------------------------------
-------------------------------------------------------------



Clichê 22


---------------------------xx6~------------------------------
-------8------6---6---6----xx6~------------------------------
--7/9----9/7--7---7---7--------------------------------------
-------------------------------------------------------------
-------------------------------------------------------------
-------------------------------------------------------------


Clichê 23



-------------------------------------------------------------
------------6--6-------3--6---3/5---5------------------------
-------7----------7----3--3---3/5---5------------------------
--5/7----7-------------3--3---3/5---5------------------------
-------------------------------------------------------------
-------------------------------------------------------------



solo 2


-------------------------------------------------------------
-------------------------------------------------------------
--12b14--12--10h12p10---------12b14--12---9h12p9---7h9p7-----
--------------------------12---------------------------------
-----------------------13------------------------------------
-------------------------------------------------------------




-------------------------------------------------------------
-------------------------------X-X-10p8--6h8p6---------------
--5h7p5---------------------------------------------7--------
-----------5h7p5---------------------------------------------
--------------------5h7p5------------------------------------
-------------------------------------------------------------





------------8-----------8-----------8-----------8------------
--8h10p8-------10p8--------10p8--------10p8---------10p8-----
----------9----------9-----------9-----------9------------9--
-------------------------------------------------------------
-------------------------------------------------------------
-------------------------------------------------------------





------------10-----------------------------------------------
---------10----13p10---------------------------10------------
--12b14--------------12--12p10----10--------10----12---------
-------------------------------12-----10h12------------------
-------------------------------------------------------------
-------------------------------------------------------------





---------------------------------12--------------10----------
--x-x-10----x-x-11-----11b13-----------13r11-----------------
-------------------------------------------------------------
-------------------------------------------------------------
-------------------------------------------------------------
-------------------------------------------------------------





-----10--13p10----10--13p10-----10--13p10-----10--13p10------
--10-----------10-----------10-------------10----------------
-------------------------------------------------------------
-------------------------------------------------------------
-------------------------------------------------------------
-------------------------------------------------------------





-----10--13p10----10--13p10-----10--13p10-----10--13p10------
--11-----------11------------11-----------11-----------------
-------------------------------------------------------------
-------------------------------------------------------------
-------------------------------------------------------------
-------------------------------------------------------------





-----12--15P12----12--15P12----12--15P12----12--15P12--------
--13-----------13-----------13-----------13------------------
-------------------------------------------------------------
-------------------------------------------------------------
-------------------------------------------------------------
-------------------------------------------------------------





-----12--15P12----12--15P12----12--15P12----12--15P12--------
--13-----------13-----------13-----------13------------------
-------------------------------------------------------------
-------------------------------------------------------------
-------------------------------------------------------------
-------------------------------------------------------------





-----10--13p10----10--13p10-----10--13p10-----10--13p10------
--10-----------10-----------10-------------10----------------
-------------------------------------------------------------
-------------------------------------------------------------
-------------------------------------------------------------
-------------------------------------------------------------





-----10--13p10----10--13p10-----10--13p10-----10--13p10------
--11-----------11------------11-----------11-----------------
-------------------------------------------------------------
-------------------------------------------------------------
-------------------------------------------------------------
-------------------------------------------------------------





-----12--15P12----12--15P12----12--15P12----12--15P12--------
--13-----------13-----------13-----------13------------------
-------------------------------------------------------------
-------------------------------------------------------------
-------------------------------------------------------------
-------------------------------------------------------------





-----12--15P12----12--15P12----12--15P12----12--15P12--------
--13-----------13-----------13-----------13------------------
-------------------------------------------------------------
-------------------------------------------------------------
-------------------------------------------------------------
-------------------------------------------------------------




--15b17---15---13h15p13------13---15b17---15----12h15p12-----
-------------------------15----------------------------------
-------------------------------------------------------------
-------------------------------------------------------------
-------------------------------------------------------------
-------------------------------------------------------------




-------------------------------------------------------------
--13h15p13---------------------------------------------------
--------------14h17p14---------------------------------------
----------------------------14h17p14-------------------------
------------------------------------------17\----------------
-------------------------------------------------------------

 

乐谱评价 (0)
暂时没有评价. :(
需要帮助,你有一个小费分享,或只是想谈谈这首歌? 开始讨论!

您必须登录才能加入讨论
要么 注册

 

关于这首歌

没有这首歌的信息.