Sultans Of Swing (独奏) Uke乐谱通过 Dire Straits

Ukulele乐谱没有和弦.

添加乐谱到您的歌本里
Tablature / ChordsFont size: A- A A+

不明白什么是乐谱和弦?请您浏览这些uke课程:

#Source: https://www.youtube.com/watch?v=tH9GzyTDnoE

A|-8---7--5---8---8--7--7---5--3--8---7--5---8---8--7--7--------3--
E|-10--8--6---10--10-8--8---5--3--10--8--6---10--10-8--8--0-3-5----
C|-----------------------------------------------------------------
G|-----------------------------------------------------------------

A|-10^----12/10-8-10p8------10^--10h12p10- 7h10p7-5h7p5-3h5p3---------------
E|---------------------10-------------------------------------3h5p3---------
C|------------------------------------------------------------------2h4p2-0-
G|--------------------------------------------------------------------------

A|---------------------------3p0-----3p0-----3p0-----3p0-----3p0-----3p0-----3p0-
E|-1-3-5p3p1-3p1-----3h5p3p0-----3p0-----3p0-----3p0-----3p0-----3p0-----3p0-----
C|---------------2---------------------------------------------------------------
G|-------------------------------------------------------------------------------

A|------5--------------------0---------------------------7----5--
E|----5---8p5---------------1---3---1-3-5--3-5-6--5-6-6^--6v-----
C|-7^---------7--7p5p2p0---2-------------------------------------
G|------------------------3--------------------------------------

A|---5-8p5---5-8p5---5-8p5---5-8p5---5-8p5---5-8p5---5-8p5---5-8p5-
E|-5-------5-------5-------5-------5-------6-------6-------6-------
C|-----------------------------------------------------------------
G|-----------------------------------------------------------------

A|-----10p7---7-10p7---7-10p7---7-10p7---7-10p7---7-10p7---7-10p7---
E|-6/8------8--------8--------8--------8--------8--------8--------0-
C|------------------------------------------------------------------
G|------------------------------------------------------------------

A|---5-8p5---5-8p5---5-8p5---5-8p5---5-8p5---5-8p5---5-8p5---5-8p5-
E|-5-------5-------5-------5-------5-------6-------6-------6-------
C|-----------------------------------------------------------------
G|-----------------------------------------------------------------

A|-----10p7---7-10p7---7-10p7---7-10p7---7-10p7---7-10p7---7-10^---
E|-6/8------8--------8--------8--------8--------8--------8---------
C|-----------------------------------------------------------------
G|-----------------------------------------------------------------

A|-10^----12/10-8-10p8------10^--10h12p10- 7h10p7-5h7p5-3h5p3---------------
E|---------------------10-------------------------------------3h5p3---------
C|------------------------------------------------------------------2h4p2-0-
G|--------------------------------------------------------------------------

A|-8---7--5---8---8--7--7---5--3--8---7--5---8---8--7--7--------3--
E|-10--8--6---10--10-8--8---5--3--10--8--6---10--10-8--8--0-3-5----
C|-----------------------------------------------------------------
G|-----------------------------------------------------------------

 

乐谱评价 (0)
暂时没有评价. :(
需要帮助,你有一个小费分享,或只是想谈谈这首歌? 开始讨论!

您必须登录才能加入讨论
要么 注册

 

关于这首歌

没有这首歌的信息.