Money For Nothing (介绍) Uke乐谱通过 Dire Straits

Ukulele乐谱没有和弦.

添加乐谱到您的歌本里
Tablature / ChordsFont size: A- A A+

不明白什么是乐谱和弦?请您浏览这些uke课程:

A|-5--5--5--3--5--8-|-----5--3-3-1------|---------1-------|-------3--1----------|
E|-3--3--3--3--3--8-|-3---3--3-3-1--3-3-|----3----1-------|-1-3---3--1--3-------|
C|------------------|---------------2-2-|-2--2-------2--2-|---0---------2-------|
G|------------------|-------------------|-----------------|-3-------------------|

A|--------5----5--3---5---5-|--5-----3--1--------|-------------1-----|----------|
E|---3----3----3--3---3---3-|--3--3--3--1---3--3-|--2-----3------3---|-1-3---3--|
C|--------------------------|---------------2--2-|--------2--------2-|-0-2---2--|
G|--------------------------|--------------------|-------------------|----------|

 

乐谱评价 (0)
暂时没有评价. :(
需要帮助,你有一个小费分享,或只是想谈谈这首歌? 开始讨论!

您必须登录才能加入讨论
要么 注册

 

关于这首歌

没有这首歌的信息.