Money For Nothing (歌曲主要旋律) Uke乐谱通过 Dire Straits

Ukulele乐谱没有和弦.

添加乐谱到您的歌本里
Tablature / ChordsFont size: A- A A+

不明白什么是乐谱和弦?请您浏览这些uke课程:

A-------------------8-|----------------------|-----5----------|-
E----10--10--8--10----|-----10--8------------|----------6-----|-
C---------------------|--------------10---7--|-------------7--|-
G-0--0---0------0-----|--0--0------0----0----|--0--0--0----0--|-


A---------------------|----------------------|----10---------------|-
E--1--3--3--3--1------|----10----8--10--10---|-------8-10-8--------|-
C-----------------2---|----------------------|--------------10---7-|-
G--0-----0--0--0------|-0--0---0----0--------|--0----0----0----0---|-


A------5--------------|--------------|-
E-------------6-------|--1--3--3--3--|-
C-----------------7---|--------------|-
G-0----0--0-------0---|--0-----0--0--|-

 

乐谱评价 (1)
您必须登录才能加入讨论
要么 注册

 

GreenAlmond avatar
Could add a space between each GCEA, to reduce confusion
01 Jun 2011
关于这首歌

没有这首歌的信息.