The Ice Is Getting Thinner (歌曲主要旋律) Uke乐谱通过 Death Cab For Cutie

5 在歌曲中使用的和弦: Am, F, C, G, Dsus2

添加乐谱到您的歌本里
Tablature / ChordsFont size: A- A A+

不明白什么是乐谱和弦?请您浏览这些uke课程:

A|--0-----7--9-----------------3--------0-----7--5-----------------3--------------|
E|--------------------1--------------------------3--------1--------------------------|
C|--4--------------------------4--------4--------------------------------------------|
G|-----2--------------0--2--0--------------2--------------0--2--0--5--------------|
# This is the basic melody number one

A|--0-----7--9-----------------3--------0-----7--5-----------------5-----|
E|--------------------1--------------------------3--------1-----------------|
C|--4--------------------------4--------4-----------------------------------|
G|-----2--------------0--2--0--------------2--------------0--2--0--7-----|
# This is the 2nd part of the basic melody. You should be able to put these together once you recognize the sound

A|--------3--------3--------3--0-----4--5-----5--2-----2--------3--------3-----------5----|
E|--1--------0--------1--------0-----------------3-----------------1--------3----------------|
C|--5--------0--------5-----------------2-----------------0--------5-------------------------|
G|-----0--------0--------0--------2--------2--------0-----4-----------0-----0--------------|

A|--0-----7--5-----------------3------|
E|-----------3--------1-----------------|
C|--4-----------------------------------|
G|-----2--------------0--2--0--5------|

# [Solo]
A|-------------------------------------5-7-----7--5-----------------------|
E|5--------------------5--------3-----------3------------3-5-------------|
C|--------------------------------------------------------------------------|
G|---5--7--9--7--------------5--------------------------------------7----|

A|------------------------------------------------------------------------------------------|
E|5-------------------b----------------------------------3-5-----5-------------------------|
C|-------------------------------------------------------------------------------------------|
G|---5--7--9--12-----12--14-----12--9--7--10--9-----9--7-----------------5-----5--9--|

 

乐谱评价 (1)
您必须登录才能加入讨论
要么 注册

 

Lunarlights avatar
Fantastic tab!
29 Sep 2014
关于这首歌

没有这首歌的信息.