Photobooth Uke乐谱通过 Death Cab For Cutie

5 在歌曲中使用的和弦: G, Em, D, C, Am

添加乐谱到您的歌本里
Tablature / ChordsFont size: A- A A+

不明白什么是乐谱和弦?请您浏览这些uke课程:

# For the first two choruses the riff is
A---------x----------x---5--5--x---3--3--|
E---0--0--x----3--3--x---------x---------|
C---------x----------x---------x---------|
G---------x----------x---------x---------|

# For The Final Chorus It Plays This Riff
A------------2---------0----------------5--3---2--3--2-----|
E---0--0--0------3--3----------------5---------------------|
C----------------------------------------------------------|
G----------------------------------------------------------|


Intro
G G Em Em D D C C G G Em Em D D C C

G G Em Em
I remember when the days were long
D D C C
and the nights when the living room was on the lawn.
G G Em Em
Constant quarreling the childish fits
D D C C
and our clothes in a pile on the ottoman.
G G Em Em
All the slander and double speak
D D C C
Were only foolish attempts to show you did not mean,
G G Em Em
Anything but the blatant proof
D D C C
Was your lips touching mine in the photobooth.

Chorus 1

Am Am C C Em Em D D C C
And as the summers ending the cold air rush your hard heart away.
Am Am C C
You were so condescending,
# (1st Chorus riff)
And this is all that's left
# (1st Chorus riff)
Scraping paper to document.
A---------x----------|
E---0--0--x----3--3--|
C---------x----------|
G---------x----------| D
I've packed a change of clothes and it's time to move on.

G G Em Em D D C C G G Em Em D D C C

G G Em Em
Cup your mouth to compress the sound,
D D C C
Skinny dipping with the kids from a nearby town.
G G Em Em
And everything that I said was true
D D C C
As the flashes blinded us in the photobooth.
G G Em Em
Well I lost track when those words were said,
D D C C
You took the wheel and you steered us into my bed,
G G Em Em
And soon we woke and I walked you home
D D C C
And it was pretty clear that is was hardly love.

Chorus 2

Am Am C C Em Em D D C C
And as the summers ending the cold air rush your hard heart away.
Am Am C C
You were so condescending,

# (1st Chorus riff)
And this is all that's left
# (1st Chorus riff)
Scraping paper to document.
A---------x----------|
E---0--0--x----3--3--|
C---------x----------|
G---------x----------| D
I've packed a change of clothes and it's time to move on.

G G Em Em D D C C G G Em Em D D C C

Am Am C C Em Em D D C C
And as the summers ending the cold air rush your hard heart away.
Am Am C C Em Em D D C C
You were so condescending as the alcohol drained the days.
Am Am C C Em Em D D C C
And as the summers ending the cold air rush your hard heart away.
Am Am C C
You were so condescending,
(Final Chorus riff)
And this is all that's left,
(Final Chorus riff)
The empty bottles spent cigarettes so pack a change of clothes
(Final Chorus riff) Em Em
Cause its time to move on.


# first two chorus riff
A---------x----------x---5--5--x---3--3--|
E---0--0--x----3--3--x---------x---------|
C---------x----------x---------x---------|
G---------x----------x---------x---------|

# The Final Chorus
A------------2---------0----------------5--3---2--3--2-----|
E---0--0--0------3--3----------------5---------------------|
C----------------------------------------------------------|
G----------------------------------------------------------|

 

乐谱评价 (0)
暂时没有评价. :(
需要帮助,你有一个小费分享,或只是想谈谈这首歌? 开始讨论!

您必须登录才能加入讨论
要么 注册

 

关于这首歌

没有这首歌的信息.