Lack Of Color Uke乐谱通过 Death Cab For Cutie

3 在歌曲中使用的和弦: Bb, G, Cm

添加乐谱到您的歌本里
Tablature / ChordsFont size: A- A A+

不明白什么是乐谱和弦?请您浏览这些uke课程:

#this is my first tab... hopefully you guys like it. :) #

A ----------------------------------6-6-6-6-6-6-1-1--------6-6-1-1-----
E -3-3-3-3-3-1-1-3-3-3-3-3-3-3-1-1-----------------4-4-4-4---------3--
C 3-3-3-3-3-3-3-3-3-3-3-3-3-3-3-3-3-3-3-3-3-3-3-3-3-3-3-3-3-3-3-3-3---
G -------------------------------------------------------------------

#(keep repeating)#

And...
I...
But...
It...
Turns...

If...
That...
Please...
It's...
Absorbing...
The...

This...
For...
And...
Can't...
Bb Bb
I'm... phone

Bb Bb G G Cm Cm
To xxxx xx 7:03 xxx xx xxxx machine

x xxxx x xxxx xxx xxx xx come xxxx
Bb Bb G G
xxx x xxxx xx'x xxx late
Cm Cm
x xxxxxx xxxx given xxx x xxxxxx xx xxxx
Cm Cm Bb Bb Cm Cm
Given xxx x reason xx stay [x3]

#INSTRUMENTAL#
A --------------------------------6-6-6-6-6-6-1-1--------6-6-1-1-----
E -3-3-3-3-3-1-1-3-3-3-3-3-3-1-1-----------------4-4-4-4---------3--
C 3-3-3-3-3-3-3-3-3-3-3-3-3-3-3-3-3-3-3-3-3-3-3-3-3-3-3-3-3-3-3-3---
G -------------------------------------------------------------------


A ----------------------------------6-6-6-6-6-6-1-1--------6-6-1-1-----
E -3-3-3-3-3-1-1-3-3-3-3-3-3-3-1-1-----------------4-4-4-4----------3--
C 3-3-3-3-3-3-3-3-3-3-3-3-3-3-3-3-3-3-3-3-3-3-3-3-3-3-3-3-3-3-3-3---
G -------------------------------------------------------------------
This xx xxxx xxx xxxxxxx xxx xxx xxxxx xxxx xx years

 

乐谱评价 (2)
您必须登录才能加入讨论
要么 注册

 

aloftychin avatar
Actually this is a pretty good tab for it, although once it hits the 6's and 1's, change the C string to an open 0, it sounds a lot better. Other than that, good job.
16 May 2013
Burnaby avatar
This is incorrect to the song.
25 Oct 2011
关于这首歌

没有这首歌的信息.