I Will Follow You Into The Dark (介绍) Uke乐谱通过 Death Cab For Cutie

Ukulele乐谱没有和弦.

添加乐谱到您的歌本里
Tablature / ChordsFont size: A- A A+

不明白什么是乐谱和弦?请您浏览这些uke课程:

A||--0----3-------------3--------|-------3--------------3-2-----3-|
E||-----0------0------0------0---|------------1-----0-------------|
C||----------------0-------------|--5--0----------0---------2-----|
G||----------2---2---------0---0-|----------2---2-----0-------0---|

--0----3-------------3--------|-----2-5------2----2-5------2-|
-----0------0------0------0---|--3-------------3-------------|
----------------0-------------|------------2-------------2---|
----------2---2---------0---0-|----------0-------------0-----|

--0----3-------------3--------|-----2------2---0-----3-------3-|
-----0------0------0------0---|----------0---0---0-----3-------|
----------------0-------------|--4-----------------------2-----|
----------2---2---------0---0-|-------1------------2-------0---|

-------3--------3------------|-------3-------------3--------|
------------1---1---1----1---|-----0------0------0------0---|
--5--0----------5----------0-|--0-------------0-------------|
----------2---2-1------1-----|----------0---0---------0---0-|

|--------3-------------3--------|--0----3--------0----3--------|
|------0------0------0------0---|-----0------0------0------0---|
|*--0-------------0-------------|------------------------------|
|*----------0---0---------0---0-|----------2---2---------2---2-|

-------3-------------3--------|-------3-----------2-5------2--||
------------1-------------1---|-----0------0---3--------------||
--5--0----------5--0----------|--0-----------------------2---*||
----------2---2---------2---2-|----------0---0---------0-----*||

--0----3-------------3--------|-------3--------------3-2-----3-|
-----0------0------0------0---|------------1-----0-------------|
----------------0-------------|--5--0----------0---------2-----|
----------2---2---------0---0-|----------2---2-----0-------0---|

--0----3-------------3--------|-----2-5------2----2-5------2-|
-----0------0------0------0---|--3-------------3-------------|
----------------0-------------|------------2-------------2---|
----------2---2---------0---0-|----------0-------------0-----|

--0----3-------------3--------|-----2------2---0-----3-------3-|
-----0------0------0------0---|----------0---0---0-----3-------|
----------------0-------------|--4-----------------------2-----|
----------2---2---------0---0-|-------1------------2-------0---|

-------3--------3----3--------|-------3-------------3--------|
------------1---1--1------1---|-----0------0------0------0---|
--5--0----------5-----------0-|--0-------------0-------------|
----------2---2-1-------1-----|----------0---0---------0---0-|

|--------3-------------3--------|--0----3--------0----3--------|
|------0------0------0------0---|-----0------0------0------0---|
|*--0-------------0-------------|------------------------------|
|*----------0---0---------0---0-|----------2---2---------2---2-|

-------3-------------3--------|-------3-----------2-5------2--||
------------1-------------1---|-----0------0---3--------------||
--5--0----------5--0----------|--0-----------------------2---*||
----------2---2---------2---2-|----------0---0---------0-----*||

--0----3-------------3--------|-------3--------------3-2-----3-|
-----0------0------0------0---|------------1-----0-------------|
----------------0-------------|--5--0----------0---------2-----|
----------2---2---------0---0-|----------2---2-----0-------0---|

--0----3-------------3--------|-----2-5------2----2-5------2-|
-----0------0------0------0---|--3-------------3-------------|
----------------0-------------|------------2-------------2---|
----------2---2---------0---0-|----------0-------------0-----|

--0----3-------------3--------|-----2------2---0-----3-------3-|
-----0------0------0------0---|----------0---0---0-----3-------|
----------------0-------------|--4-----------------------2-----|
----------2---2---------0---0-|-------1------------2-------0---|

-------3--------3----3--------|-------3-------------3--------|
------------1---1--1------1---|-----0------0------0------0---|
--5--0----------5-----------0-|--0-------------0-------------|
----------2---2-1-------1-----|----------0---0---------0---0-|

|--------3-------------3--------|--0----3--------0----3--------|
|------0------0------0------0---|-----0------0------0------0---|
|*--0-------------0-------------|------------------------------|
|*----------0---0---------0---0-|----------2---2---------2---2-|

-------3-------------3--------|-------3-----------2-5------2--||
------------1-------------1---|-----0------0---3--------------||
--5--0----------5--0----------|--0-----------------------2---*||
----------2---2---------2---2-|----------0---0---------0-----*||

-------3-------------3--------|-------3-------------3--------|
------------1-------------1---|------------1-------------1---|
--5--0----------5--0----------|--5--0----------5--0----------|
----------1---1---------1---1-|----------1---1---------1---1-|

--0----3-------------3--------|-------3--------------3-2-----3-|
-----0------0------0------0---|------------1-----0-------------|
----------------0-------------|--5--0----------0---------2-----|
----------2---2---------0---0-|----------2---2-----0-------0---|

--0----3-------------3--------|-----2-5------2----2-5------2-|
-----0------0------0------0---|--3-------------3-------------|
----------------0-------------|------------2-------------2---|
----------2---2---------0---0-|----------0-------------0-----|

--0----3-------------3--------|-----2------2---0-----3-------3-|
-----0------0------0------0---|----------0---0---0-----3-------|
----------------0-------------|--4-----------------------2-----|
----------2---2---------0---0-|-------1------------2-------0---|

-------3--------3----3--------|-------3-------------3--------|
------------1---1--1------1---|-----0------0------0------0---|
--5--0----------5-----------0-|--0-------------0-------------|
----------2---2-1-------1-----|----------0---0---------0---0-|

--3--------3--------|-------------------||
--1--------1--------|--0----------------||
--5--------5--------|--0----------------||
--2--------1--------|--0----------------||

 

乐谱评价 (0)
暂时没有评价. :(
需要帮助,你有一个小费分享,或只是想谈谈这首歌? 开始讨论!

您必须登录才能加入讨论
要么 注册

 

关于这首歌

没有这首歌的信息.