Coney Island Uke乐谱通过 Death Cab For Cutie

3 在歌曲中使用的和弦: G, Em, C

添加乐谱到您的歌本里
Tablature / ChordsFont size: A- A A+

不明白什么是乐谱和弦?请您浏览这些uke课程:

intro & verse (G G and C C)


A|--2-----2-----2-------3-----3--------|
E|------3-----3-------0-----0-----0----|
C|----0-----0-----0-1-----0-----0------|
G|--0-----0-----0----------------------| X 3

and then the last is

A|-----2----2-----2-3---3-2---3-5-------|
E|------3-----3-------0-----0-----0----|
C|-------------------------------------|
G|--0-----0-----0----------------------|


chorus:

Em Em G G C C
everything was closed at coney island
Em Em G G C C
and i could not help from smiling

second chorus:

Em Em G G C C
everything was closed at coney island
Em Em G G C C
and i could not help from smiling
Em Em G G C C
brookyln will fill the beach eventually
Em Em G G C C
and everyone will go except me

 

乐谱评价 (0)
暂时没有评价. :(
需要帮助,你有一个小费分享,或只是想谈谈这首歌? 开始讨论!

您必须登录才能加入讨论
要么 注册

 

关于这首歌

没有这首歌的信息.