Cath... Uke乐谱通过 Death Cab For Cutie

Ukulele乐谱没有和弦.

添加乐谱到您的歌本里
Tablature / ChordsFont size: A- A A+

不明白什么是乐谱和弦?请您浏览这些uke课程:

Intro:
A----------------------------------0---3-3-3-3-3-3-3-3-3-3--
E---3/5 5-5--1/0-------------------0---3-3-3-3-3-3-3-2-2-2--
C-----------------2...--2/4--4/5-- 0---0-0-0-0-0-0-0-0-0-0-- x 3
G----------------------------------0---0-0-0-0-0-0-0-0-0-0--

A---0-0-0-0-0-0-0-0-x-0---
E---5-5-5-5-5-5-3-3-x-2...
C---0-0-0-0-0-0-0-0-x-0--- ..let ring...
G---0-0-0-0-0-0-0-0-x-0---

Verse:
A---0-0-0-0-0-0-0--0--0--0--
E---5-5-5-5-5-5-0--0--0--0--
C---0-0-0-0-0-0-0--0--0--0--
G---5-5-5-5-5-5-0--0--0--0--

A---0-0-0-0-0-0-0--0--0--0--
E---5-5-5-5-5-5-x--x--x--x--
C---5-5-5-5-5-5-0--0--0--0--
G---0-0-0-0-0-0-0--0--0--0--

Chorus:
A---0-0-0-0-0-0-0-0-x-0---
E---5-5-5-5-5-5-3-3-x-2...
C---0-0-0-0-0-0-0-0-x-0---
G---0-0-0-0-0-0-0-0-x-0---

 

乐谱评价 (0)
暂时没有评价. :(
需要帮助,你有一个小费分享,或只是想谈谈这首歌? 开始讨论!

您必须登录才能加入讨论
要么 注册

 

关于这首歌

没有这首歌的信息.