A Lack Of Color (介绍) Uke乐谱通过 Death Cab For Cutie

Ukulele乐谱没有和弦.

添加乐谱到您的歌本里
Tablature / ChordsFont size: A- A A+

不明白什么是乐谱和弦?请您浏览这些uke课程:

A|------------------------------------------|
E|--4-4-4-4-4-4-4/0--0-0-0-4-4-4-4-4-4-2-2--|
C|-4-4-4-4-4-4-4----4-4-4-4-4-4-4-4-4-4-4-4-|
G|------------------------------------------|



A|--7-7-7-7-7-7-----0-0-0-0-7-7-------------|
E|--------------7-7-------------7-----------|
C|-1-1-1-1-1-1-1-1-1-1-1-1-1-1-1------------|
G|------------------------------------------|

 

乐谱评价 (1)
您必须登录才能加入讨论
要么 注册

 

talkischeap. avatar
flag for NZ(ISO2) (Auckland)
Yep, this tab is good, but you need a capo if you wanna play it!
03 Feb 2012
关于这首歌

没有这首歌的信息.