Donkey Kong Country 2-squak's Shaft Uke乐谱通过 David Wise

Ukulele乐谱没有和弦.

添加乐谱到您的歌本里
Tablature / ChordsFont size: A- A A+

不明白什么是乐谱和弦?请您浏览这些uke课程:

A|-------------------|-8-8-8-8-8-8-8-8--4--4--4---5---5---5---5---5---5---5---5---|-------|
E|----------------|-5-5-5-5-5-5-5-5---------------------------------|-------|
C|----------------|-2-2-2-2-2-2-2-2--4-4-4--5--5--5--5--5--5--5--5--|-------|
G|-10-4--4-10--10-4--|------------------4-4-4--5--5--5--5--5--5--5--5--|-7--9--|
S S
A|--------------------------------------------------------------------------------------|
E|----------5---------------------------------------------------------------|
C|--------------------------------------------------------------------------|
G|-10-12-9--5---5----7--9--10-12-9--5--5----7--7--9--10-12-9--5-14--15--14--12--14--12--|

 

乐谱评价 (0)
暂时没有评价. :(
需要帮助,你有一个小费分享,或只是想谈谈这首歌? 开始讨论!

您必须登录才能加入讨论
要么 注册

 

关于这首歌

没有这首歌的信息.