A New Career In A New Town Uke乐谱通过 David Bowie

Ukulele乐谱没有和弦.

添加乐谱到您的歌本里
Tablature / ChordsFont size: A- A A+

不明白什么是乐谱和弦?请您浏览这些uke课程:

#Intro
A|0----------------|0-------0--------|0---------------|----------------|
E|0-------------0-1|3----------3----0|1-------0---1---|3---------------|
C|-----------------|2-------------2--|0-------0---0---|0---------------|
G|2----------------|0----------------|0-------0---0---|0---------------|

A|0-----------|0----0--------|0------------|-------------|--------3-5-7|
E|0--------0-1|3-------3----0|1----0---1---|3------------|5------------|
C|------------|2----------2--|0----0---0---|0------------|2------------|
G|2-----------|0-------------|0----0---0---|0------------|2------------|

#Main Riff A A
A|8-7-8-7----------3-5-7|8-7-8-7----------3-5-7|
E|0-----0-0---0--0-0----|0-----0-0---0--0-0----|
C|0-----0-0-0-0--2-4---5|0-----0-0-0-0--2-4---5|
G|0-----0-0---0---------|0-----0-0---0--0------|

A|8-7-8-7----------3-5-7|8-7-8-7----------10-12-14|
E|0-----0-0---0--0-0----|0-----0-0---0--0--0-----0|
C|0-----0-0-0-0--2-4---5|0-----0-0-0-0--2--0--0--0|
G|0-----0-0---0--0------|0-----0-0---0--0---------|

#Main Riff B B
A|15-14-15-14-12-10-12-14-12-10-10-12-14|15-14-15-14-12-----------|
E|-0--------0--0-----0--------0--0-----0|-0--------0--0---1-3-5-7-|
C|-0--------0--0--0--0--------2-----0---|-0--------0--0-0-0-0-0-0-|
G|-0--------0--0-----0--------0---------|-0--------0--0---0-------|

#Break
A|-----------------|0---------------|----------------|3---------------|
E|3---1--0-1-------|1---------------|5---3---1-------|0---------------|
C|0---0--0-0-------|2---------------|2---2---2-------|0---------------|
G|0---0--0---------|----------------|----------------|----------------|

 

乐谱评价 (0)
暂时没有评价. :(
需要帮助,你有一个小费分享,或只是想谈谈这首歌? 开始讨论!

您必须登录才能加入讨论
要么 注册

 

关于这首歌

没有这首歌的信息.