You Dont Miss Your Water Till The Well Runs Dry Uke乐谱通过 Danyo Cummings

0 在歌曲中使用的和弦:

添加乐谱到您的歌本里
Tablature / ChordsFont size: A- A A+

不明白什么是乐谱和弦?请您浏览这些uke课程:

A---------0-----3\5/3-------1\3/1------1---0---1--0------------------
E----0h1-----0---------0h1--------0h1-----------------3---1---0------
C-2------------------------------------------------------------------ # repeat x2
G--------------------------------------------------------------------

# chords-

1. A|--x-x--0--x-x
E|--x-x--1--x-x
C|--x-x--2--x-x
G|--x-x--2--x-x

2. A|--x-x--3---x-x
E|--x-x--3---x-x
C|--x-x--3-4-x-x
G|--x-x--3-5-x-x

3. A|--x-x--1---x-x
E|--x-x--1---x-x
C|--x-x--1-2-x-x
G|--x-x--1-3-x-x

4. A|--x-x--0---x-x
E|--x-x--0---x-x
C|--x-x--1---x-x
G|--x-x--2---x-x

# / slide up
# \ slide down
# h hammer-on

 

乐谱评价 (0)
暂时没有评价. :(
需要帮助,你有一个小费分享,或只是想谈谈这首歌? 开始讨论!

您必须登录才能加入讨论
要么 注册

 

关于这首歌

没有这首歌的信息.