Sunshine Of Your Love (介绍) Uke乐谱通过 Cream

Ukulele乐谱没有和弦.

添加乐谱到您的歌本里
Tablature / ChordsFont size: A- A A+

不明白什么是乐谱和弦?请您浏览这些uke课程:

E|-3-3-1-3---------------3-3-1-3---------------|
B|-----------2-1-------------------2-1---------|
G|---------------0-3-0-0---------------0-3-0---|
D|---------0---------------------0-------------|

E|--3--3--1--3----------0--3------------------|
B|--3--3--1--3----2--1------------------------|
G|--3--3--1--3--------------------------------|
D|--3--3--1--3--0-----------------------------|

E|--3--3--1--3----------0--3--5---------------|
B|--3--3--1--3----2--1------------------------|
G|--3--3--1--3--------------------------------|
D|--3--3--1--3--0-----------------------------|

 

乐谱评价 (0)
暂时没有评价. :(
需要帮助,你有一个小费分享,或只是想谈谈这首歌? 开始讨论!

您必须登录才能加入讨论
要么 注册

 

关于这首歌

没有这首歌的信息.