Sunshine Of Your Love Uke乐谱通过 Cream

Ukulele乐谱没有和弦.

添加乐谱到您的歌本里
Tablature / ChordsFont size: A- A A+

不明白什么是乐谱和弦?请您浏览这些uke课程:

a|--------------|--------------|----------|
E|--------------|--7--6--5--0--|--3----0--|
C|--4--4--2--4--|--------------|----------|
g|--------------|--------------|----------|

# Verse
a|--7-7--5--7-------------7--|--10---7--| X5
E|--4-4--2--4----7--6--5-----|----------|
C|--4-4--2--4----------------|----------|
g|--4-4--2--4----------------|----------|


a|--7-7--5--7----------------|----------|
E|--4-4--2--4----7--6--5--0--|--3----0--|
C|--4-4--2--4----------------|----------|
g|--4-4--2--4----------------|----------|


a|--7-7--5--7-------------7--|--10---7--| X3
E|--4-4--2--4----7--6--5-----|----------|
C|--4-4--2--4----------------|----------|
g|--4-4--2--4----------------|----------|


a|--2--2-2----5---0---
E|--2--2-2----2---0---
C|--3--3-3----2---1---
g|--4--4-4----2---2---


a|--2--2-2-2--2-2-2--2-2-2--2-2-
E|--2--2-2-2--2-2-2--2-2-2--2-2-
C|--3--3-3-3--3-3-3--3-3-3--3-3-
g|--4--4-4-4--4-4-4--4-4-4--4-4-

# Repeat from verse

 

乐谱评价 (0)
暂时没有评价. :(
需要帮助,你有一个小费分享,或只是想谈谈这首歌? 开始讨论!

您必须登录才能加入讨论
要么 注册

 

关于这首歌

没有这首歌的信息.